Cifra Club

Te guardo un beso (por si lo quieres)

Mägo De Oz

Cifrado: Principal (guitarra y guitarra eléctrica)
tono: Em
Introducción:

Arpegio
     Em                         C
E|-----------0-------------0-------------0------------0-------------|
B|---------0---0---------0---0---------1---3--------1---3-----------|
G|-------0-------0-----0------0------0------0-----0-------0---------|
D|------------------------------------------------------------------|
A|--------------------------------3------------3--------------------|
E|----0-------------0-----------------------------------------------|
     G                         D
E|-----------3-------------3------------2------------2-------------|
B|---------0---0---------0---0--------3---3--------3---3-----------|
G|-------0-------0-----0------0-----2------2-----2-------2---------|
D|-----------------------------------------------------------------|
A|-----------------------------------------------------------------|
E|----3-------------3------------2-----------2---------------------|
1era Estrofa con Arpegio
Em                             C
Tengo un hola amor guardado en un banco de sueños
         G                     D
Por B  vuelves A E  vida  Regresártelo
Em                          C
Tengo un beso amor  en una hucha de besos
G                          D9
Con la dirección de donde vive tu boca hoy


C                             G
Tengo a ratos sonrisas para ganarle sitio al llanto
         Am                     D
Pues de tanto llorar no llego a fin de mes

G         D        Bm       C   G            D           C
Quiero dormir y volver a soñar que estamos juntos como ayer
G         D        Bm       C              Em   D        C
Quiero volver a llenarme de ti si te hice daño ya lo pague con soledad


     Em                         C
E|-----------0-------------0-------------0------------0-------------|
B|---------0---0---------0---0---------1---3--------1---3-----------|
G|-------0-------0-----0------0------0------0-----0-------0---------|
D|------------------------------------------------------------------|
A|--------------------------------3------------3--------------------|
E|----0-------------0-----------------------------------------------|

     G                         D
E|-----------3-------------3------------2------------2-------------|
B|---------0---0---------0---0--------3---3--------3---3-----------|
G|-------0-------0-----0------0-----2------2-----2-------2---------|
D|-----------------------------------------------------------------|
A|-----------------------------------------------------------------|
E|----3-------------3------------2-----------2---------------------|

Acompañamiento:
Los Acordes son los del Arpegio

  Em       C           G    D
E|-----12--------15-14-10----5/75------|
B|-----------13-------------------------|
G|--------------------------------------|

2da Estrofa con Arpegio

Em                               C
Tengo un hola y un adiós para jugármelo a las cartas
        G                         D
Con muy mala suerte y por si tu vuelves o si no.

           C                          G
Cuando un beso llega tarde y se entretiene con un adiós
     Am                                D
Charlando sobre el olvido es cuando  muere un amor

G          D       Bm       C   G            D            C
Quiero dormir y volver a soñar que estamos juntos como ayer
G          D       Bm       C             Em   D        C
Quiero volver a llenarme de ti si te hice daño ya lo pague

Em         C     G        D
Donde están esos besos perdidos
     Em         C          D
Dime donde están tantas promesas de amor
Em   C       G        D           C
Soledad esa es mi condena por perder
       D                Em
Anochecidas pegado a tu piel



Solo:*Hay algunas partes que no estoy seguro
así que las resolví con algo de mi imaginación
espero no haya ningún inconveniente.

  Em    C        G           D              Em                  C
E|---5/7-7(6)-3-5-3---3-3---0---------------------------------------|
B|--------------------3-3---0-3--------------0-3---0--------------3-|
G|----------------------------2--2---2-0-2-0-----2---0-2------------|
D|-------------------------------------------------------4-5-4-5----|

                       G                           D
E|---0-2-3-2-0---------10--8-7-8-7---7---------7-----2/32-0--------|
B|-3-----------3-0-3-------------------10-8-10---10----------3-3----|
G|------------------------------------------------------------------|
D|------------------------------------------------------------------|

                C             D                 C           D
E|-----------------12-10----------10--------------12-10--------10-10|
B|--3--1--0--------------13-12-13----12-10-------------13-12-13-----|
G|----------2--0---------------------------12-12--------------------|
D|------------------------------------------------------------------|

*Cuerdas. No es el arreglo original de la canción pero se acerca

   G      D       Bm     C         G      D
E|--7----7----5---5-----7---7-----8----8----7---7----5----5-----|
B|--8----8----7---7-----7---7-----8----8----8---8----7----7-----|
G|----7----7----7---7-----7--------9----9-----7---7----7-----7--|
D|--------------------------------------------------------------|
Olvido    Ven Pues no quiero Recordar que no se  amotine mi
   C
E|--8----8----8----8-----12--|
B|--8----8----8----8-----13--|
G|----9----9----9----9---12--|
D|---------------------------|
 Dolor

** Si no pues aquí esta la otra opción:


G       D            Bm          C       G        D        C
Olvido ven, pues no quiero recordar, que no se amotine mi dolor
  A       E        C#m      D   A           E           D
Quiero dormir y volver a soñar que estamos juntos como ayer
A          E       C#m      D              F#m  E        D
Quiero volver a llenarme de ti si te hice daño ya lo pague

Con Soledad.
   F#m
E|-----------------|
B|-------------2---|
G|----------2------|
D|-------4---------|
A|-----4-----------|
E|--2--------------|

Quiero dedicar esta transcripción a una persona
muy especial en mi vida…

"..Y nunca olvidaré
que me enamoré de una flor
Siempre te esperaré, no me digas adiós...".
00:00 / 00:00
Otros videos de esta canción
Repetir
Otros videos de esta canción
Composición de Txus Di Fillatio
40 vistas
    • ½ Tono
    • Am
    • Bbm
    • Bm
    • Cm
    • C#m
    • Dm
    • Ebm
    • Em
    • Fm
    • F#m
    • Gm
    • G#m
  • Agregar a la lista

    0 comentarios

    Ver todos los comentarios

    ¿Lograste tocar?

    0 Tocaron 0 Aún no

    ¡Graba un video tocando Te guardo un beso (por si lo quieres) y envíanoslo!

    00:00 / 00:00
    OK