Libera Ela (Part. Dilsinho)

Maiara e Maraisa

Composición de: Lari Ferreira / Diego Silveira / Rafa Torres / Thales Lessa
tono: F#m (con acordes en la forma de Em ) Capotraste en 2ª casa
[Intro]  Em7  C9  G  D

   Em7        C9
E|--------------------------------|
B|--------------------------------|
G|---0---0-------0---0----0-------|
D|-----0-----------0---0----0-----|
A|------------3-------------------|
E|-0------------------------------|

   G          D
E|--------------------------------|
B|--------------------------------|
G|---0---0-----2-2-----2----------|
D|-----0------0-0-0------0--------|
A|--------------------------------|
E|-3------------------------------|

[Primeira Parte]

Em7      C9
Ei, brother
          G              D
Cê vai enrolar ela até quando?
Em7       C9              G
  Tem sorte, que ela não viu
                D
Que só ela que tá amando
Em7            C9
  Só te falo que tem gente aí sozinho
       G               D
Que daria tudo pra ter isso tudo
Em7        C9
  Você tem o que todo mundo quer
G                D
  Mas quer todo mundo

[Pré-Refrão]

    Am7
Se você sempre tem
                  D9
E não quer ficar junto

[Refrão]

       Em7
Libera ela
          C9
Cê tá roubando o tempo
                    G
Cê tá ocupando o espaço
            D
Do amor da vida dela

       Em7
Libera ela
        C9
Tá atrasando os planos
                   G
Do casório, do cachorro
                D9
Do neném com a cara dela

       Em7
Libera ela
          C9
Cê tá roubando o tempo
                    G
Cê tá ocupando o espaço
            D
Do amor da vida dela

       Em7
Libera ela
        C9
Tá atrasando os planos
                   G
Do casório, do cachorro
                D9
Do neném com a cara dela

       Em7  C9
Libera ela
       G    D9
Libera ela
       Em7  C9
Libera ela
       G    D9
Libera ela

[Primeira Parte]

   Em             C7M
E|---------0-----------------------|
B|-------0-------------0-----------|
G|----0--------------0-------------|
D|-----------------2---------------|
A|---------------3-----------------|
E|-0-------------------------------|

    G            D
E|---------------------2-----------|
B|--------0----------3-------------|
G|------0----------2---------------|
D|----0----------0-----------------|
A|---------------------------------|
E|--3------------------------------|

Em7      C7M
Ei, brother
          G              D
Cê vai enrolar ela até quando?
Em7       C7M             G
  Tem sorte, que ela não viu
                D
Que só ela que tá amando
Em7            C7M
  Só te falo que tem gente aí sozinho
       G               D
Que daria tudo pra ter isso tudo
Em7        C7M
  Você tem o que todo mundo quer
G                D
  Mas quer todo mundo

[Pré-Refrão]

    Am7
Se você sempre tem
                  D9
E não quer ficar junto

[Refrão]

       Em7
Libera ela
          C9
Cê tá roubando o tempo
                    G
Cê tá ocupando o espaço
            D
Do amor da vida dela

       Em7
Libera ela
        C9
Tá atrasando os planos
                   G
Do casório, do cachorro
                D9
Do neném com a cara dela

       Em7
Libera ela
          C9
Cê tá roubando o tempo
                    G
Cê tá ocupando o espaço
            D
Do amor da vida dela

       Em7
Libera ela
        C9
Tá atrasando os planos
                   G
Do casório, do cachorro
                D9
Do neném com a cara dela

( Em7  C9  G  D )

       Em7  C9  G  D
Libera ela

[Refrão]

       Em7
Libera ela
          C9
Cê tá roubando o tempo
                    G
Cê tá ocupando o espaço
            D
Do amor da vida dela

       Em7
Libera ela
        C9
Tá atrasando os planos
                   G
Do casório, do cachorro
                D9
Do neném com a cara dela

       Em7
Libera ela
          C9
Cê tá roubando o tempo
                    G
Cê tá ocupando o espaço
            D
Do amor da vida dela

       Em7
Libera ela
        C9
Tá atrasando os planos
                   G
Do casório, do cachorro
                D9
Do neném com a cara dela

       Em7  C9
Libera ela
       G    D9
Libera ela
       Em7  C9
Libera ela
       G    D9
Libera ela

Libera ela
Página 1 / 1

Letras y titulo
Acordes y artista

restablecer los ajustes
OK