Rayando El Sol

Maná

Composición de: Alex / Fher
tono: G
[Intro]  G  D  Em  C
         G  Bm  C  D  Em

[Primeira Parte]

            G  C             D  C
Rayando el sol  rayando por ti
      G                 C            D  C 
Esta pena me duele me quema sin tu amor
       Bm            C          D
No me has llamado estoy desesperado
     Bm           C                D
Son muchas lunas las que te he llorado

[Refrão]

            G  D        Em    C
Rayando el sol  desesperacion
        G               Bm               C  D 
Es mas facil llegar al sol que a tu corazon
              G  D              Em  C
Me muero por ti   viviendo sin ti
        G              Bm           C  D 
Y no aguanto me duele tanto estar asi
            Em 
Rayando el sol

[Segunda Parte]

              G 
A tu casa yo fui 
C              D  C
Y no te encontre
       G                      
En el parque, en la plaza
       C              D  C 
En el cine yo te busque
    Bm          C                    D
Te tengo atrapada entre mi piel y mi alm
            Bm             C                  D
Mas ya no puedo tanto y quiero estar junto a ti

[Refrão]

            G  D        Em    C
Rayando el sol  desesperacion
        G               Bm               C  D 
Es mas facil llegar al sol que a tu corazon
              G  D              Em  C
Me muero por ti   viviendo sin ti
        G              Bm           C  D 
Y no aguanto me duele tanto estar asi
            C 
Rayando el sol

[Solo] C  D  Bm  C  D 
       Em  Bm  C  D 
       Em  Bm  C  D

E|----------8--10-10h12-12--10h12-12-10-5-5-|
B|-8-10-12--10-12-12--------12----12-12-7-7-|
G|-9-11-12----------------------------------|
D|------------------------------------------|
A|------------------------------------------|
E|------------------------------------------|

E|-12-10-5-5--5-3-2---10-12-14-10-12--------|
B|-12-12-7-7--7-5-3-------------------------|
G|------------------------------------------|
D|------------------------------------------|
A|------------------------------------------|
E|------------------------------------------|

E|-12-12-12-14-15-14h15p14-14h15-14---------|
B|----------------------------------15------|
G|-------------------------------------14---|
D|------------------------------------------|
A|------------------------------------------|
E|------------------------------------------|

E|------------------------------------------|
B|------------------------------------------|
G|-12-11------------------------------------|
D|-------12---------------------------------|
A|----------12-10-9-10-9--------------------|
E|-----------------------11-12--------------|

[Refrão]

            G  D        Em    C
Rayando el sol  desesperacion
        G               Bm               C  D 
Es mas facil llegar al sol que a tu corazon
              G  D              Em  C
Me muero por ti   viviendo sin ti
        G              Bm           C  D 
Y no aguanto me duele tanto estar asi
            G           D  Em        C
Rayando el sol, rayando,      rayando
            G   Bm  C               D  
Rayando el sol,      ay ay ay ay ay ay
            G       
Rayando el sol

[Final] G  D  Em  C
        G  Bm  C  D  G
Página 1 / 1

Letras y titulo
Acordes y artista

restablecer los ajustes
OK