Cifra Club

Aprenda

The Love Of Richard Nixon

Manic Street Preachers

Tab de bajo: Principal
INTRO+VERSE+SOLO:

G-------------------------------------------------------------------|
D-------------------------------------------------------------------|
A-9---9-9-----------------------------------------------------------|
E-----------10---10-10---7---7-7---5-4--0-0-------------------------|

Nicky just plays this throughout the verse and the intro, and through James' solo.

CHORUS:

This may not be exactly what he plys but its pretty damn close and works fine with it anyway.

G-------------------------------------------------------------------|
D-------------------------------------------------------------------|
A-12-12-12-12-7-7-7-7-12-12-12-12-7-7-7-7-11-11-11-11-7-7-7-7-11-11-|
E-------------------------------------------------------------------|

G-------------------------------------------------------------------|
D-------------------------------------------------------------------|
A-11-11-7-7-7-7-----------------------------------------------------|
E---------------12-12-12-12-7-7-7-7-12-12-12-12-7-7-7-7-12-12-12-12-|

G-------------------------------------------------------------------|
D-------------------------------------------------------------------|
A-------------------------------------------------------------------|
E-7-7-7-7-12-12-12-12-7-7-7-7---------------------------------------|

PRE-VERSE:

E-14---14-14--12-14---14-14--12-14---14-14--------------------------

ENDING:

E-14b----12--14b-12--14b-12--14b-12-14b-----------------------------
Compositor James Dean Bradfield / Sean Moore
33 reproducciones

0 comentarios

Mostrar mais comentários

¿Conseguiste tocar?

0 Tocaron 0 Ainda não

Grave um vídeo tocando The Love Of Richard Nixon e mande pra gente!

00:00 / 00:00
outros vídeos desta música
repetir qualidade Automático
Outros vídeos desta música
00:00 / 00:00
Automático
OK