Quiero Mirar Tu Hermosura

Marco Barrientos

Composição de: Marco Barrientos
tono: D
Intro

0:0
E|--7-9-10-9-7----7---7----7-9-10-9-7----7-----7-9-10-9-7----7---7-
B|-------------10---7-----------------10---7--------------10---7---
G|-----------------------------------------------------------------
D|-----------------------------------------------------------------
A|-----------------------------------------------------------------
E|-----------------------------------------------------------------

E|--------------------------------7---7-9-10-9-7----7---7----------
B|--8-8-8--10-10-10-10-10---7--10----------------10---7------------
G|-----------------------------------------------------------------
D|-----------------------------------------------------------------
A|-----------------------------------------------------------------
E|-----------------------------------------------------------------

E|--7-9-10-9-7----7-----7-9-10-9-7----7---7------------------------
B|-------------10---7--------------10---7-----8-8-7----------------
G|--------------------------------------------------9-7-6-7--------
D|-----------------------------------------------------------------
A|-----------------------------------------------------------------
E|-----------------------------------------------------------------

Solo Intermedio
4:21
E|--10v-12-12s14----10---17-15-14-15-14p15p14----------------------
B|---------------12---------------------------15-15h17-------------
G|----------------------------------------------------14-11--------
D|-----------------------------------------------------------------
A|-----------------------------------------------------------------
E|-----------------------------------------------------------------

E|-----12s14-12-10-10---12h14-----------------------------------14-
B|----------------------------14--14-14p15p14-12-10h12-14s15-17----
G|--11-------------------------------------------------------------
D|-----------------------------------------------------------------
A|-----------------------------------------------------------------
E|-----------------------------------------------------------------

E|--17s19-19-19-17-15-17-14-15-17v-17----------------------17--17v-
B|------------------------------------15-15-------------15---15----
G|------------------------------------------14-14-14-14------------
D|-----------------------------------------------------------------
A|-----------------------------------------------------------------
E|-----------------------------------------------------------------

Outro
6:47
E|-----------------------------------------------------------------
B|--10--------------10-------------------------------------10------
G|---------------------9-9-9--9-9h11--9----------------------------
D|-----12-12--12-12---------------------12-11h12-12--12-12----12-12
A|-----------------------------------------------------------------
E|-----------------------------------------------------------------

E|----------------------------------------9h10-9--------------14-12
B|-----------------------------------------------12-10h12--10------
G|-----------------------------------------------------------------
D|--12-12-12-14-14-14--14-14s16------------------------------------
A|-------------------------------12--------------------------------
E|-----------------------------------------------------------------

E|--15s17--14v---12-10-10h12---------------------------------------
B|--------------------------------10-----------10------------------
G|-----------------------------11----11-----11---------------------
D|--------------------------------------9---------11-9-------------
A|-----------------------------------------------------------------
E|-----------------------------------------------------------------

E|---------------------------
B|-----10-----------10-------
G|--11----11-----11----------
D|-----------9---------11-9--
A|---------------------------
E|---------------------------
Página 1 / 1

Letras y titulo
Acordes y artista

restablecer los ajustes
OK