Dr. Mario - Fever

Mario Bros

tono: D
E |--6-7-6-7-5-3-3-5-6-7-5-3-3-----6-7-6-7-5-3-3-5--------------
B |------------------------------------------------0---1---2---3
G |-------------------------------------------------------------
D |-------------------------------------------------------------
A |-------------------------------------------------------------
E |-------------------------------------------------------------

E |--6-7-6-7-5-3-3-5-6-7-5-3-3-----6-7-6-7-5-3-3-5------------------
B |------------------------------------------------(untranscribable)
G |-----------------------------------------------------------------
D |-----------------------------------------------------------------
A |-----------------------------------------------------------------
E |-----------------------------------------------------------------

E |-----------------------------------------------------------
B |--4-5-4-5-3-1-1---4-5-3-1-1-----4-5-4-5-3-1-1-------0-3-1-0
G |----------------2-----------------------------2---2--------
D |------------------------------------------------4----------
A |-----------------------------------------------------------
E |-----------------------------------------------------------

E |-----------------------------------------------
B |--4-5-3-1-1---4-5-3-1-1---4-5-4-5-3-1-1---1-3-1
G |----------------------------------------2------
D |-----------------------------------------------
A |-----------------------------------------------
E |-----------------------------------------------

E |-----------------------------------------------------
B |----------------------1---------------------------0-1
G |--------0-------2---0---------------0-------2---0----
D |--2---0-----------------3-----2---0------------------
A |----------3---------------------------3--------------
E |-----------------------------------------------------

E |-----------------------------------------------
B |--4-5-3-1-1---4-5-3-1-1---4-5-4-5-3-1-1---1-3-1
G |----------------------------------------2------
D |-----------------------------------------------
A |-----------------------------------------------
E |-----------------------------------------------

Página 1 / 1

Letras y titulo
Acordes y artista

restablecer los ajustes
OK