Luigi's Mansion - The Mansion

Mario Bros

tono: D
E |------------------------------------------------
B |------------------------------------------------
G |------------------------------------------------
D |--2-2-2-2---2-1----------0-0-0-0---0------------
A |----------3-----2----------------2---3--1-2-----
E |--------------------------------------------0---

| ------------------------------------------------
| ------------------------------------------------
| ------------------------------------------------
| --2-2-2-2---2-1---------0-0-0-0---0-2-0---------
| ----------3-----2---------------2-------3-2-0---
| ------------------------------------------------

| ------------------------------------------------
| ------------------------------------------------
| ------------------------------------------------
| --2-2-2-2---2-1----------0-0-0-0---0------------
| ----------3-----2----------------2---3--1-2-----
| --------------------------------------------0---

| ------------------------------------------------
| ------------------------------------------------
| ------------------------------------------------
| --2-2-2-2---2-1---------0-0-0-0---0-2-0---------
| ----------3-----2---------------2-------3-2-0---
| -----------------------------------------------0

| ----------------------0-------------------------
| ---------------1--0-4---4-3--2-4-2-1--0-1-0---4-
| ------------2-------------------------------3---
| --------0-2-------------------------------------
| -0-2-3------------------------------------------
| ------------------------------------------------

| 0-----------
| --0---0-----
| ----3-------
| --------2---
| ------------
| ------------

| ------------------------------------------------
| ------------------------------------------------
| ------------------------------------------------
| --2-2-2-2---2-1---------0-0-0-0---0-2-0---------
| ----------3-----2---------------2-------3-2-0---
| ------------------------------------------------

| ------------------------------------------------
| ------------------------------------------------
| ------------------------------------------------
| --2-2-2-2---2-1----------0-0-0-0---0------------
| ----------3-----2----------------2---3--1-2-----
| --------------------------------------------0---

| ------------------------------------------------
| ------------------------------------------------
| ------------------------------------------------
| --2-2-2-2---2-1---------0-0-0-0---0-2-0---------
| ----------3-----2---------------2-------3-2-0---
| -----------------------------------------------0

| ----------------------0-------------------------
| ---------------1--0-4---4-3--2-4-2-1--0-1-0---4-
| ------------2-------------------------------3---
| --------0-2-------------------------------------
| -0-2-3------------------------------------------
| ------------------------------------------------

| 0-----------
| --0---0--1--
| ----3-------
| ------------
| ------------
| ------------
Página 1 / 1

Letras y titulo
Acordes y artista

restablecer los ajustes
OK