Mario Bros Theme Original

Mario Bros

tono: G
_____________
INTRO
1 2x
2 2x
3
INTRO
1 2x
4 2x
3
INTRO
_____________

INTRO

|-12-12-12-----12---15----|
|----------13-------------|
|---------------------12--|
|-------------------------|
|-------------------------|
|-------------------------|

PARTE 1

|----------------------------------------15--17---13-15---------------|
|-13------------------12-------------17-------------------17-13-15-12-|
|------12--------14------15-14---12-----------------------------------|
|-----------14--------------------------------------------------------|
|---------------------------------------------------------------------|
|---------------------------------------------------------------------|

PARTE 2

|-15-14-13----12--------------------15-14-13-------20-20-20--
|----------16-----------13----13-15----------16-17-----------
|----------------13-14-----14--------------------------------
|------------------------------------------------------------
|------------------------------------------------------------
|------------------------------------------------------------

-15-14-13-----12-------------------------------|
-----------16----------13----13-15---16--15-13-|
-----------------13-14----14-------------------|
-----------------------------------------------|
-----------------------------------------------|
-----------------------------------------------|

PARTE 3

|-------------------------------------------------------------------------------------|
|-13-13-13---13-15---17-13-------13-13-13---13-15-17---13-13-13---13-15---17-13-------|
|--------------------------14-12------------------------------------------------14-12-|
|-------------------------------------------------------------------------------------|
|-------------------------------------------------------------------------------------|
|-------------------------------------------------------------------------------------|

PARTE 4

|-12--------------13--13--------17--17--17--15-13-12------------
|----13---------------------12------------------------13--------
|--------12-13-14--------14------------------------------14-12--
|---------------------------------------------------------------
|---------------------------------------------------------------
|---------------------------------------------------------------

-12-----------------13--13--------13--13--13--12--------|
----13------------------------12-----------------15--13-|
-------12---13---14--------14---------------------------|
--------------------------------------------------------|
--------------------------------------------------------|
--------------------------------------------------------|

|---------------------------------------------|
|---------------------------------------------|
|----17----14----15----------17----14----15---|
|---------------------------------------------|
|-15----12----13----------15----12----13------|
|---------------------------------------------|

|---------------------------------------------|
|---------------------------------------------|
|---10---7---8-----------10---7---8-----------|
|---------------------------------------------|
|-8----5---6-----------8----5---6-------------|
|---------------------------------------------|

|--------------------654----------------------|
|-----------------765----4--------------------|
|-8765-8-7-----6-5---------4------------------|
|----------6-5---------------8-7-6------------|
|---------------------------------------------|
|---------------------------------------------|
Página 1 / 1

Letras y titulo
Acordes y artista

restablecer los ajustes
OK