Mario Kart DS - Rainbow Road

Mario Bros

tono: G
E |------0----2--3-2---0---------------------------
B |----3-------------3-------3--1-0-1--------------
G |--2-----2-------------2--------------0----------
D |---------------------------------------2--------
A |------------------------------------------------
E |------------------------------------------------

E |-----10-12-----14--15-14-10-12------17--15-14-15---10-22
B |--10--------10-------------------10---------------------
G |--------------------------------------------------------
D |--------------------------------------------------------
A |--------------------------------------------------------
E |--------------------------------------------------------

E |--------2-0----------------------------------------------------------
B |----------------4-2-4---0-4-4--5-------0---------0-------------------
G |-----2-----------------------------------1-2-------1-2---1----------1
D |--2--------------------------------------------------------2--4--4---
A |---------------------------------------------------------------------
E |---------------------------------------------------------------------

Página 1 / 1

Letras y titulo
Acordes y artista

restablecer los ajustes
OK