In The Name Of Love

Martin Garrix

Composición de: Ilsey Juber / Martin Garrix / Matt Rad / Ruth-Anne Cunningham / Stephen Philibin / Yael Nahar
tono: G
[Intro - Instrumental]

(C Em D)


E|---10--7--12--10--7---10--7----------------------------|
B|-----------------------------8--10--12-----------------|
G|-------------------------------------------------------|
D|-------------------------------------------------------|
A|-------------------------------------------------------|
E|-------------------------------------------------------|


      C
If I told you this was only gonna hurt
      Em          D
If I warned you that the fire's gonna burn
           C
Would you walk in? Would you let me do it first?
      Em             D
Do it all in the name of love
           C
Would you let me lead you even when you're blind?
        Em      D
In the darkness, in the middle of the night
        C
In the silence, when there's no one by your side
           Em             D
Would you call in the name of love?


                C             Em  D
In the name of love, name of lo-o-ove
                C             Em  D
In the name of love, name of lo-o-ove

               C   C
In the name of 

E|---10--7--12--10--7---10--7----------------------------|
B|-----------------------------8--10--12-----------------|
G|-------------------------------------------------------|
D|-------------------------------------------------------|
A|-------------------------------------------------------|
E|-------------------------------------------------------|   (repete várias vezes)

                 Em D
In the name, name
               C C
In the name of
                  Em D
In the name, name
               C C Em D
In the name of
                  C C
In the name, name
               Em C
In the name of



      C
If I told you we could bathe in all the lights
           Em     D
Would you rise up, come and meet me in the sky?
            C
Would you trust me when you're jumping from the heights?
           Em             D
Would you fall in the name of love?
              C
When there's madness, when there's poison in your head
          Em    D
When the sadness leaves you broken in your bed
        C
I will hold you in the depths of your despair
         Em             D
And it's all in the name of love



                C             Em  D
In the name of love, name of lo-o-ove
                C             Em  D
In the name of love, name of lo-o-ove


[Instrumental]

               C   C
In the name of love
                 Em D
In the name, name
               C C
In the name of
                  Em D
In the name, name
               C C Em D
In the name of
                  C C
In the name, name
               Em C
In the name of



C
I wanna testify
Em                D
Scream in the holy light
C
You bring me back to life
         Em             D
And it's all in the name of love
C
I wanna testify
Em                D
Scream in the holy light
C
You bring me back to life
         Em             D
And it's all in the name of love



                C             Em  D
In the name of love, name of lo-o-ove
                C             Em  D
In the name of love, name of lo-o-ove


[Instrumental ]

               C   C
In the name of love
                 Em D
In the name, name
               C C
In the name of
                  Em D
In the name, name
               C C Em D
In the name of
                  C C
In the name, name
               Em C
In the name of
Página 1 / 1

Letras y titulo
Acordes y artista

restablecer los ajustes
OK