Nem Doeu

Matheus e Kauan

Composición de: De Ângelo / Diego Silveira / Gabriel Agra / Mateus Marcolino / Thales Lessa
tono: F#m (con acordes en la forma de Em ) Capotraste en 2ª casa
[Intro] C9  D  Bm7  Em7

E|------------------------------------------|
B|------------------------------------------|
G|-----0h2/4-4-4h5-4--2/4-4-----------------|
D|-0h2--------------------------------------|
A|------------------------------------------|
E|------------------------------------------|

E|------------------------------------------|
B|------------------------------------------|
G|-----0h2/4-4-4h5-4------------------------|
D|-0h2-----------------2--------------------|
A|-------------------0----------------------|
E|------------------------------------------|

E|----------------------0h2-2-2-2-2p0-0h2---|
B|------------------------------------------|
G|-----0h2-2-2-2-2-2p0--2---2-2-2-2---2-----|
D|-0h2--------------------------------------|
A|------------------------------------------|
E|------------------------------------------|

E|--------------------------12--------------|
B|-----------------------------12-----------|
G|-0h2-2-2-2-2/4-2-2p0---0--------12--------|
D|---------------------2--------------------|
A|------------------------------------------|
E|------------------------------------------|

[Primeira Parte]

  C9
Quando cê pediu pra terminar
  D
Quase que eu falei até que enfim
   Bm7
Meti o dedo no olho pra chorar
   Em7
E por dentro querendo rir

[Segunda Parte]

               C9
Aí foi o suficiente pra inventar
                         D
Que eu sofri feito um maluco por você
                       Bm7
E na madruga eu não parava de ligar
                          Em7
Fala a verdade quem não quis te atender

[Refrão]

               C9               D
A melhor sensação que eu já senti
                  Bm7              Em7
Foi ver que nem doeu e eu te esqueci

                                C9
Eu tô bebendo é porque eu tô feliz
                               D
Eu tô feliz porque acabou nós dois
                             Bm7
E aproveitando que eu tô solteiro
                                           Em7
Eu vou beijar primeiro e perguntar o nome depois

( C9  D  Bm7  Em7 )

[Primeira Parte]

  C9
Quando cê pediu pra terminar
  D
Quase que eu falei até que enfim
   Bm7
Meti o dedo no olho pra chorar
   Em7
E por dentro querendo rir

[Segunda Parte]

               C9
Aí foi o suficiente pra inventar
                         D
Que eu sofri feito um maluco por você
                       Bm7
E na madruga eu não parava de ligar
                          Em7
Fala a verdade quem não quis te atender

[Refrão]

               C9               D
A melhor sensação que eu já senti
                  Bm7              Em7
Foi ver que nem doeu e eu te esqueci
                                C9
Eu tô bebendo é porque eu tô feliz

                               D
Eu tô feliz porque acabou nós dois
                             Bm7
E aproveitando que eu tô solteiro
                                           Em7
Eu vou beijar primeiro e perguntar o nome depois

               C9               D
A melhor sensação que eu já senti
                  Bm7             Em7
Foi ver que nem doeu e eu te esqueci
                                C9
Eu tô bebendo é porque eu tô feliz
                               D
Eu tô feliz porque acabou nós dois
                             Bm7
E aproveitando que eu tô solteiro
                                           Em7
Eu vou beijar primeiro e perguntar o nome depois

                                C9
Eu tô bebendo é porque eu tô feliz
                               D
Eu tô feliz porque acabou nós dois
                             Bm7
E aproveitando que eu tô solteiro
                                           Em7
Eu vou beijar primeiro e perguntar o nome depois

[Final] C9  D  Em
Página 1 / 1

Letras y titulo
Acordes y artista

restablecer los ajustes
OK