Salvação

Mato Seco

Composición de: Rodrigo Pícolo
tono: A
Intro: F#m C#m Bm

E|----------------|-------------2-5--
B|--5-2---2--5-2--|--5-2---2-5-------
G|------4---------|------4-----------    Guitarra
D|----------------|------------------
A|----------------|------------------
E|----------------|------------------

E|-------5-9---|---9-12-9------------
B|--7--7-----9-|-9--------12---------
G|-------------|---------------------    teclado durante a musica
D|-------------|---------------------
A|-------------|---------------------
E|-------------|---------------------


        F#m            C#m                 Bm
Nossas crianças, nosso futuro dormindo no chão
        F#m            C#m                 Bm
Nossas vidas, nossos destinos sem educação
        F#m            C#m                 Bm
Lideres desgovernados os quais, não conseguimos parar
        F#m            C#m                 Bm
Um sistema desenfreado, que quer nos atropelar

D                               C#m                    Bm
Na vida há dois caminhos, mas só um que vai na direção certa

        F#m            C#m                 Bm
Minha terra, cansada, com sede e sem água pra planta crescer
        F#m            C#m                 Bm
Nosso ar ficando escasso, e sem ar pro planeta viver
        F#m            C#m                 Bm
Somos a salvação para um mundo que ainda tem jeito
        F#m            C#m                 Bm
Somos a primeira opção para um mundo perfeito

Refrão:
        F#m            C#m                 Bm
A saúde do meu povo jogada aos cantos dos hospitais
        F#m            C#m                 Bm
Jovens anjos na cidade se tornando marginais
        F#m            C#m                 Bm
Guerras santas, santos bandidos, saques nas pastorais
        F#m            C#m                 Bm
Nossa nação, nossos irmãos, não se respeitam mais
Página 1 / 1

Letras y titulo
Acordes y artista

restablecer los ajustes
OK