Olha a Explosão

Kevinho

Composición de: Mc Ez
tono: Bb
E|-------------3-1----------3-1-------------|
B|-1-1-1-4-4-4----1---4-4-4-----1-----------|
G|------------------------------------------|
D|------------------------------------------|
A|------------------------------------------|
E|------------------------------------------|

E|------------------------------------------|
B|-3-1-3-1-3-1-3-1-3----4-1-----------------|
G|-------------------5-5--------------------|
D|------------------------------------------|
A|------------------------------------------|
E|------------------------------------------|

E|-------------3-1----------3-1-------------|
B|-------4-4-4----1---4-4-4-----1-----------|
G|------------------------------------------|
D|------------------------------------------|
A|------------------------------------------|
E|------------------------------------------|

E|------------------------------------------|
B|-3-1-3-1-3-1-3-1-3----4-1-----------------|
G|-------------------5-5--------------------|
D|------------------------------------------|
A|------------------------------------------|
E|------------------------------------------|

E|------------------------------------------|
B|-1-1-1-3-4-3-1-4----1-1-------------------|
G|-----------------3-3----------------------|
D|------------------------------------------|
A|------------------------------------------|
E|------------------------------------------|

E|------------------------------------------|
B|-1-1-1-3-4-3-1-4----1-1-------------------|
G|-----------------3-3----------------------|
D|------------------------------------------|
A|------------------------------------------|
E|------------------------------------------|

E|-------------3----------------------------|
B|-1---3---4-------1------------------------|
G|------------------------------------------|
D|------------------------------------------|
A|------------------------------------------|
E|------------------------------------------|

E|------------------------------------------|
B|-111-444----1-----------------------------|
G|---------333------------------------------|
D|------------------------------------------|
A|------------------------------------------|
E|------------------------------------------|
Repete 4X e na última vez acrescentar:
E|------------------------------------------|
B|--1---1---1---1---------------------------|
G|------------------------------------------|
D|------------------------------------------|
A|------------------------------------------|
E|------------------------------------------|

Página 1 / 1

Letras y titulo
Acordes y artista

restablecer los ajustes
OK