Tô Apaixonado Nessa Mina

Kevinho

Composición de: JHEF
tono: D
[Intro] D G Em

E|-5-2-5-2-0---5-2-5-2-0----5-2-5-2-0---5-2-5-2-0------|
B|-----------------------3------------------------3----|
G|-----------------------------------------------------|
D|-----------------------------------------------------|
A|-----------------------------------------------------|
E|-----------------------------------------------------|

E|-5-2-5-2-0---5-2-5-2-0--- 5-2-5-2-0--5-2-5-2---------|
B|-----------------------3---------------------/7-5h3-3|
G|-----------------------------------------------------|
D|-----------------------------------------------------|
A|-----------------------------------------------------|
E|-----------------------------------------------------|

 D                   G
Tô apaixonado nessa mina
    Em          D
E quando ela empina
                   G Em
Não dá pra não quere____r
 D                   G
Tô apaixonado nessa mina
    Em          D
E quando ela empina
                    G Em
Geral quer se envolve____r
    D
E quando ela chegou no fluxo

Geral parou
 D
Cintura fina e o bumbum grande
 G                   Em
Não teve quem não notou
   D
Cabelo longo ao vento
            G              Em
Troca sentimento por sensação
     D
Faz pose pra foto, tirando onda
      G                    Em
Esqueceu quem feriu o coração
D                        G Em          D
Ela manda um quadradinho,     sensacional
       G             Em
Oh, assim cê mata o pai
D                        G Em          D
Ela manda um quadradinho,     sensacional
     G            Em
Oh, vai que tá legal

 D                   G
Tô apaixonado nessa mina
    Em          D
E quando ela empina
                   G Em
Não dá pra não quere____r
 D                   G
Tô apaixonado nessa mina
    Em          D
E quando ela empina
                    G Em
Geral quer se envolve____r

 D                   G
Tô apaixonado nessa mina
    Em          D
E quando ela empina
                   G Em
Não dá pra não quere____r
 D                   G
Tô apaixonado nessa mina
    Em          D
E quando ela empina
                    G Em
Geral quer se envolve____r

[D G Em]

E|-5-2-5-2-0---5-2-5-2-0----5-2-5-2-0---5-2-5-2-0------|
B|-----------------------3------------------------3----|
G|-----------------------------------------------------|
D|-----------------------------------------------------|
A|-----------------------------------------------------|
E|-----------------------------------------------------|

E|-5-2-5-2-0---5-2-5-2-0--- 5-2-5-2-0--5-2-5-2---------|
B|-----------------------3---------------------/7-5h3-3|
G|-----------------------------------------------------|
D|-----------------------------------------------------|
A|-----------------------------------------------------|
E|-----------------------------------------------------|

D
E quando ela chegou no fluxo

Geral parou
 D
Cintura fina e o bumbum grande
 G                   Em
Não teve quem não notou
   D
Cabelo longo ao vento
            G              Em
Troca sentimento por sensação
     D
Faz pose pra foto, tirando onda
      G                    Em
Esqueceu quem feriu o coração
D                        G Em          D
Ela manda um quadradinho,     sensacional
       G             Em
Oh, assim cê mata o pai
D                        G Em          D
Ela manda um quadradinho,     sensacional
     G            Em
Oh, vai que tá legal

 D                   G
Tô apaixonado nessa mina
    Em          D
E quando ela empina
                   G Em
Não dá pra não quere____r
 D                   G
Tô apaixonado nessa mina
    Em          D
E quando ela empina
                    G Em
Geral quer se envolve____r

 D                   G
Tô apaixonado nessa mina
    Em          D
E quando ela empina
                   G Em
Não dá pra não quere____r
 D                   G
Tô apaixonado nessa mina
    Em          D
E quando ela empina
                    G Em
Geral quer se envolve____r

[D G Em]

E|-5-2-5-2-0---5-2-5-2-0-------------------------------|
B|-------------------------/7-5h3-3--------------------|
G|-----------------------------------------------------|
D|-----------------------------------------------------|
A|-----------------------------------------------------|
E|-----------------------------------------------------|
Página 1 / 1

Letras y titulo
Acordes y artista

restablecer los ajustes
OK