Tô Apaixonado Nessa Mina

Kevinho

Composición de: JHEF
tono: G
[Intro] 

E|------------------------------------------------------------------|
B|-10----10--------10----10---------10----10-------10----10---------|
G|----11----11-9------11----11-9-7-----11----11-9-----11----11-9-7--|
D|------------------------------------------------------------------|
A|------------------------------------------------------------------|
E|------------------------------------------------------------------|

E|--------------------------------------------------------------------|
B|-10----10--------10----10---------10----10-------10----10-----------|
G|----11----11-9------11----11-9-7-----11----11-9-----11----/11-7h9-7-|
D|--------------------------------------------------------------------|
A|--------------------------------------------------------------------|
E|--------------------------------------------------------------------|

 D                   G
Tô apaixonado nessa mina
    Em          D
E quando ela empina
                   G Em
Não dá pra não quere____r
 D                   G
Tô apaixonado nessa mina
    Em          D
E quando ela empina
                    G Em
Geral quer se envolve____r
    D
E quando ela chegou no fluxo

Geral parou
 D
Cintura fina e o bumbum grande
 G                   Em
Não teve quem não notou
   D
Cabelo longo ao vento
            G              Em
Troca sentimento por sensação
     D
Faz pose pra foto, tirando onda
      G                    Em
Esqueceu quem feriu o coração
D                        G Em          D
Ela manda um quadradinho,     sensacional
       G             Em
Oh, assim cê mata o pai
D                        G Em          D
Ela manda um quadradinho,     sensacional
     G            Em
Oh, vai que tá legal

 D                   G
Tô apaixonado nessa mina
    Em          D
E quando ela empina
                   G Em
Não dá pra não quere____r
 D                   G
Tô apaixonado nessa mina
    Em          D
E quando ela empina
                    G Em
Geral quer se envolve____r

 D                   G
Tô apaixonado nessa mina
    Em          D
E quando ela empina
                   G Em
Não dá pra não quere____r
 D                   G
Tô apaixonado nessa mina
    Em          D
E quando ela empina
                    G Em
Geral quer se envolve____r

( D  G  Em )

E|------------------------------------------------------------------|
B|-10----10--------10----10---------10----10-------10----10---------|
G|----11----11-9------11----11-9-7-----11----11-9-----11----11-9-7--|
D|------------------------------------------------------------------|
A|------------------------------------------------------------------|
E|------------------------------------------------------------------|

E|--------------------------------------------------------------------|
B|-10----10--------10----10---------10----10-------10----10-----------|
G|----11----11-9------11----11-9-7-----11----11-9-----11----/11-7h9-7-|
D|--------------------------------------------------------------------|
A|--------------------------------------------------------------------|
E|--------------------------------------------------------------------|

D
E quando ela chegou no fluxo

Geral parou
 D
Cintura fina e o bumbum grande
 G                   Em
Não teve quem não notou
   D
Cabelo longo ao vento
            G              Em
Troca sentimento por sensação
     D
Faz pose pra foto, tirando onda
      G                    Em
Esqueceu quem feriu o coração
D                        G Em          D
Ela manda um quadradinho,     sensacional
       G             Em
Oh, assim cê mata o pai
D                        G Em          D
Ela manda um quadradinho,     sensacional
     G            Em
Oh, vai que tá legal

 D                   G
Tô apaixonado nessa mina
    Em          D
E quando ela empina
                   G Em
Não dá pra não quere____r
 D                   G
Tô apaixonado nessa mina
    Em          D
E quando ela empina
                    G Em
Geral quer se envolve____r

 D                   G
Tô apaixonado nessa mina
    Em          D
E quando ela empina
                   G Em
Não dá pra não quere____r
 D                   G
Tô apaixonado nessa mina
    Em          D
E quando ela empina
                    G Em
Geral quer se envolve____r

( D  G  Em )

E|-----------------------------------|
B|-10----10-------10----10-----------|
G|----11----11-9-----11----/11-7h9-7-|
D|-----------------------------------|
A|-----------------------------------|
E|----------------------=------------|
Página 1 / 1

Letras y titulo
Acordes y artista

restablecer los ajustes
OK