Zamba para olvidar

Mercedes Sosa

Composición de: Daniel Toro / Julio Fontana
tono: Dm

E|-0-3-1-0----------------------------------------------------------8--|
B|---------3----2--3--5-----3--5--6---------------5-6s8-8------8-------|
G|----------------------------------------------3------------5---------|
D|--------------2--3--5-----3--5--7----------5-------------------------|
A|-----------0----------0-0---------0--0-3-----------------7-----------|
E|---------------------------------------------------------------------|

E|----5s6----7--8---7s8-----9-----6-5-------3----1------------------|
B|------------------------------5--------------------1--------------|
G|------------------------------------6-------3------2--------------|
D|--3----5-----6--7---6s7-------------------------0-----------------|
A|----------------------------0----------0--------------------------|
E|------------------------------------------------------------------|

E|-0--1--5----3----6-----5-----9s12---10---------1-------0--1----------|
B|----------3---3-----6---5-----------------2----------3--------------|
G|----------3---3-----6---5----9s12----10------------2----------------|
D|-------3----2-----5----3--------------0---2------0------------------|
A|--------------------------0-----------------0-----------------------|
E|--------------------------------------------------------------------|
Página 1 / 1

Letras y titulo
Acordes y artista

restablecer los ajustes
OK