Billie Jean

Michael Jackson

Composición de: Michael Jackson
tono: F#m
[Intro] Riff 

Parte 1 de 2  
E|------------------------------------------|
B|------------------------------------------|
G|------------------------------------------|
D|-4---2-4-2--------------------------------|
A|---4-------4-2-4--------------------------|
E|------------------------------------------|

Parte 2 de 2  
   F#m   
E|-2------4-----------5------4--------------|
B|-2------4-----------5------4--------------|
G|-2------4-----------6------4--------------|
D|-4---2--4--2--------4---2--4--2-----------|
A|---4---------4-2-4----4---------4-2-4-----|
E|------------------------------------------|

[Primeira Parte]

Parte 1 de 2 
   F#m   
E|-2------4-----------5------4--------------|
B|-2------4-----------5------4--------------|
G|-2------4-----------6------4--------------|
D|-4---2--4--2--------4---2--4--2-----------|
A|---4---------4-2-4----4---------4-2-4-----|
E|------------------------------------------|

Parte 2 de 2
   Bm   
E|-7------7-----------7------7--------------|
B|-7------7-----------7------7--------------|
G|-7------7-----------7------7--------------|
D|-9---7--9--7--------9---7--9--7-----------|
A|---9---------9-7-9----9---------9-7-9-----|
E|------------------------------------------|

F#m
    She was more like a beauty queen 

From a movie scene

I said don't mind 
                               Bm
But what do you mean: I am the one

Who will dance on the floor 
        F#m
In the round
                  Bm
She said I am the one 

Who will dance on the floor 
        F#m
In the round


She told me her name was Billie Jean

As she caused a scene

Then every head turned with eyes that 
                     Bm
dreamed of being the one

Who will dance on the floor 

In the round

[Pré-Refrão]

 D9
People always told me:
    F#m7(11)
Be careful of what you do
           D9
And don't go around 
                       F#m7(11)
Breaking young girl's hearts
    D9
My mother always told me: 
    F#m7(11)
Be careful of who you love
        D9
And be careful of what you do
            C#7
'Cause the lie becomes the truth

[Refrão]

Frase 1

E|-2--4---5--4---2--4---5--4---------------------------|
B|-2--4---5--4---2--4---5--4---------------------------|
G|-2--4---6--4---2--4---6--4---------------------------|
D|-4--6---7--6---4--6---7--6---------------------------|
A|-----------------------------------------------------|
E|-----------------------------------------------------|

Frase 2

E|-----------------------------------------------------|
B|-7-x-x-7-x-x-7-x-x-7-x-x-7-x-x-7-x-x-7-x-x-7-x-x-7---|
G|-----------------------------------------------------|
D|-4-x-x-4-x-x-4-x-x-4-x-x-4-x-x-4-x-x-4-x-x-4-x-x-4---|
A|-----------------------------------------------------|
E|-----------------------------------------------------|

F#m (Frase 1)
    Billie Jean is not my lover

She's just a girl 
                         Bm (Frase 2)
Who claims that I am the one
                       F#m
But the kid is not my son
                  Bm (Frase 2)
She says I am the one
                       F#m
But the kid is not my son

[Segunda Parte]

F#m
    For forty days and forty nights

The law was on her side

But who can stand when she's in demand
                  Bm
Her schemes and plans

'Cause we danced on the floor 
        F#m
In the round
                     Bm
So take my strong advice
                                F#m
Just remember to always think twice

(Do think twice, do think twice)

She told: My baby

We danced 'til three

Then she looked at me

Then showed a photo my baby cried
                    Bm
His eyes were like mine
                        
'Cause we danced on the floor 
        F#m
In the round, baby

[Pré-Refrão]

 D9
People always told me
    F#m7(11)
Be careful of what you do
           D9
And don't go around 
                       F#m7(11)
Breaking young girl's hearts

         D9                 
But she came and stood right by me
          F#m7(11)
Just to smell her sweet perfume
      D9
This happened much too soon
     C#7
She called me to her room

[Refrão Final]

Frase 1

E|-2--4---5--4---2--4---5--4---------------------------|
B|-2--4---5--4---2--4---5--4---------------------------|
G|-2--4---6--4---2--4---6--4---------------------------|
D|-4--6---7--6---4--6---7--6---------------------------|
A|-----------------------------------------------------|
E|-----------------------------------------------------|

Frase 2

E|-----------------------------------------------------|
B|-7-x-x-7-x-x-7-x-x-7-x-x-7-x-x-7-x-x-7-x-x-7-x-x-7---|
G|-----------------------------------------------------|
D|-4-x-x-4-x-x-4-x-x-4-x-x-4-x-x-4-x-x-4-x-x-4-x-x-4---|
A|-----------------------------------------------------|
E|-----------------------------------------------------|

Frase 3

Parte 1 de 2
E|-----------------------------------------------------|
B|-----------------------------------------------------|
G|-----------------------------------------------------|
D|-X-X-9/11--9--7-9/11-----X-X-9/11--9--7-9/11---------|
A|-----------------------------------------------------|
E|-----------------------------------------------------|

Parte 2 de 2
E|-----------------------------------------------------|
B|-----------------------------------------------------|
G|-----------------------------------------------------|
D|-X-X-9/11--9--7-9/11-----X-X-9/11--9--7-9/11---------|
A|-----------------------------------------------------|
E|-----------------------------------------------------|

Frase 4

Parte 1 de 4
E|-----------------------------------------------------|
B|-----------------------------------------------------|
G|-----------------------------------------------------|
D|-X-X-9/11--9--7-9/11-----X-X-9/11--9--7-9/11---------|
A|-----------------------------------------------------|
E|-----------------------------------------------------|

Parte 2 de 4
E|-----------------------------------------------------|
B|-----------------------------------------------------|
G|-----------------------------------------------------|
D|-X-X-9/11--9--7-9/11--X-X-9/11--9--7-X-X-9/11--9--7--|
A|-----------------------------------------------------|
E|-----------------------------------------------------|

Parte 3 de 4
E|-----------------------------------------------------|
B|-----------------------------------------------------|
G|-----------------------------------------------------|
D|-X-X-9/11--9--7-9/11--X-X-9/11--9--7-X-X-9/11--9--7--|
A|-----------------------------------------------------|
E|-----------------------------------------------------|

Parte 4 de 4
E|-----------------------------------------------------|
B|-----------------------------------------------------|
G|-----------------------------------------------------|
D|-X-X-9/11--9--7-9/11-----X-X-9/11--9--7-9/11---------|
A|-----------------------------------------------------|
E|-----------------------------------------------------|


Frase 5

E|-----------------------------------------------------|
B|-----------------------------------------------------|
G|-----------------------------------------------------|
D|-9b10r9--7-9-7--9----9b10r9--7-9-7-------------------|
A|------------------------------------9----------------|
E|-----------------------------------------------------|

F#m (Frase 1)
    Billie Jean is not my lover

She's just a girl 
                         Bm (Frase 2)
Who claims that I am the one
                       F#m
But the kid is not my son

F#m (Frase 3)
    Billie Jean is not my lover

She's just a girl 
                         Bm (Frase 2)
Who claims that I am the one
                       F#m
But the kid is not my son
                  Bm (Frase 2)
She says I am the one
                       F#m
But the kid is not my son

(Frase 4)

                  Bm (Frase 2)
She says I am the one
                       F#m
But the kid is not my son

F#m (Frase 1)
    Billie Jean is not my lover

She's just a girl 
                         Bm (Frase 5)
Who claims that I am the one

(No, she is not just my baby)
                       F#m
But the kid is not my son

                  Bm (Frase 5)
She says I am the one
                       F#m (Frase 1)
But the kid is not my son
                  
She says I am the one

(You know what you did)

She says he is my son
(Breaking my heart, babe)

She says I am the one

Billie Jean is not my lover

Billie Jean is not my lover

Billie Jean is not my lover

Billie Jean is not my lover

(Call me, Billie Jean)

Billie Jean is not my lover

(She is not at the scene)

Billie Jean is not my lover
Página 1 / 1

Letras y titulo
Acordes y artista

restablecer los ajustes
OK