Rearrange

Miles Kane

Composição: Alex Turner / Miles Kane
Tom: A
E|--9---12----9---12/14---16--16-14--16-14-----|
B|---------------------------------------------|
G|---------------------------------------------|  3x
D|---------------------------------------------|
A|---------------------------------------------|
E|---------------------------------------------|

E|--9---12----9---7--9-------------------------|
B|---------------------------------------------|
G|---------------------------------------------|
D|---------------------------------------------|
A|---------------------------------------------|
E|---------------------------------------------|

A                 F#m
I wanna make your smoke and kisses
C#m
Black and White
A                 F#m
Measure all your spinning whispers
C#m
In the loose moonlight

A     F#m               C#m
Magic from your fingers tingles down my spine
A      F#m             C#m
Colour in-between the lines

A                    F#m         C#m
Let it out, let it out, let it all out
A                    F#m         C#m
Let it out, let it out, let it all out

    A    F#m      C#m
You rearrange my mind
    A    F#m      C#m
You rearrange my mind


E|--9---12----9---12/14---16--16-14--16-14-----|
B|---------------------------------------------|
G|---------------------------------------------|  3x
D|---------------------------------------------|
A|---------------------------------------------|
E|---------------------------------------------|

E|--9---12----9---7--9-------7-9-7-------------|
B|---------------------------------9-7---------|
G|------------------------------------9--------|
D|---------------------------------------------|
A|---------------------------------------------|
E|---------------------------------------------|


A         F#m            C#m
An uneasy feeling churns inside of me
A                 F#m       C#m
I'll draw it on a wall for you all to see

A       F#m            C#m
Tryiner find a diamond in an avalanche
        A    F#m             C#m
But you just haven't had the chance

   A                    F#m         C#m
Oh,Let it out, let it out, let it all out
A                    F#m         C#m
Let it out, let it out, let it all out

    A    F#m      C#m
You rearrange my mind
    A    F#m      C#m
You rearrange my mind

A                    F#m         C#m
Let it out, let it out, let it all out
A                    F#m         C#m
Let it out, let it out, let it all out

    A    F#m      C#m
You rearrange my mind
    A    F#m      C#m
You rearrange my mind
Página 1 / 1

Letras y titulo
Acordes y artista

restablecer los ajustes
OK