Cabelos Castanhos

Milton Nunes

tono: G
                C9              D                Em7              D
E|------------------------------------------------------------------
B|----------------------------7h-8-7-7------------------------------
G|---------7---7h-9-9-7-9-7-9---------9-9-7-7---7h-9-7--------------
D|-5h-7s-9---9--------------------------------9--------9-7-5---5s-7-
A|-----------------------------------------------------------7------
E|------------------------------------------------------------------

                C9              D                     Em7
E|----------------------------------------------------------
B|----------------------------7h-8-7-7------8-10-10s-12-----
G|---------7---7h-9-9-7-9-7-9----------9-7-9----------------
D|-5h-7s-9---9----------------------------------------------
A|----------------------------------------------------------
E|----------------------------------------------------------
   
                  C9                        D
Eu não entendo porque, meu sangue ferve nas veias
            Em7
Quando te encontro, me perco todo
                  C9                      D
Eu não entendo porque, o seu olhar e incendeia
        Em7
E se me toca, eu fico bobo
                    C9
São seus cabelos castanhos
  D/F#                     Em7
E esse olhar de mel que me faz viajar
                    C9
As vezes me sinto estranho
 D                      Em7
Quando não te vejo saio louco à te procurar

Refrão:
                    C                      D
Eu posso até me perder, tentando te encontrar
                  Em7
Mas o meu coração não desiste vai à luta
                C                      D
Não dá pra esconder, se tento me controlar
                          Em7
Te quero a todo instante, um minuto é o bastante pra dizer
              C D              Em7
Que eu amo você, que eu amo você
              C D              Em7
Que eu amo você, que eu amo você
Página 1 / 1

Letras y titulo
Acordes y artista

restablecer los ajustes
OK