Maranata

Ministério Avivah

Composición de: Hananiel Eduardo
[Intro]

G|---------------------------------|
D|---------------------------------|
A|----------------6-6-6-6--------------|
E|8-8-8-8-4-4-4-4---------6-6-6-6-------------|

Ôô, ôô, ôô
Tu és Santo, ó Senhor
Ôô, ôô, ôô
Tu és digno de louvor

G|------------------------------------|
D|------------------------------------|
A|----------------6-6-6-6-------------|
E|4-4-6-6-8-8-8-8---------6-6-6-6-----|

Só em Ti confiarei

G|----------------------------------|
D|----------------------------------|
A|----------------6-6-6-6-----------|
E|4-4-4-4-8-8-8-8---------6-6-6-6---|

Vem Jesus, vem Jesus!

G|--------------------------------------------|
D|--------------------------------------------|
A|6-6-6-6-6-----------6-6-6-6-6---------------|
E|----------4-4-4-4-4-----------6-6-6-6-6-----|
Página 1 / 1

Letras y titulo
Acordes y artista

restablecer los ajustes
OK