Para que nadie se entere

Morat

Composición de: Juan Pablo Villamil Cortes
tono: G#m

ESTROF  1:riff
     B                    E
E|-------2--------2-----------2-----------2---|
B|-----0----0---0-----0-----0-----0-----0----0-|
G|--4---------4----------1-----------1---------|

    B         E/G#       F#
E|-------2--------2-----------2-----------2----|
B|----0----0---0-----0-----0-----0-----0-----0-| X2
G|-4---------1----------3-----------3----------|
       B
Sé que es un secreto a voces
       E
Que yo quiero algo contigo
        B                E/G#
Por las noches siempre sueño
      F#
Verte cada amanecer

ESTROF  2:
       B
Por el miedo a delatarme
       E
Yo soy mi propio enemigo
     B          E/G#
Todavía no sé qué batallas
F#
Deba emprender


Pre coro:
      E
Y aún recuerdo
      B          F#
La locura y el miedo
      E            B        F#
El intento de guardar un secreto
      E        Em
Y no puedo más

CORO: (Cambia el riff)
     B                    E
E|-------2--------2-----------2-----------2---|
B|-----0----0---0-----0-----0-----0-----0----0-|
G|--4---------4----------1-----------1---------|

    B                    F#
E|-------2--------2-----------2-----------2----|
B|----0----0---0-----0-----0-----0-----0-----0-| X2
G|-4---------4----------3-----------3----------|

                     B
Para que nadie se entere
                     E
Voy a fingir con mi mirada
                   B
Y mi sonrisa enamorada
                      F#
Será una cosa de los dos

                     B
Para que nadie se entere
                        E
Voy a seguirte a todas partes
                   B
Sin avisarte desde antes
                    F#
Para disimular mi amor

Voy a ignorar mi corazón.

(Para volver a la estrofa)
     B                    E
E|-------2--------2-----------2-----------2---|
B|-----0----0---0-----0-----0-----0-----0----0-|
G|--4---------4----------1-----------1---------|


ESTROF  3:Hace el mismo riff de la primera estrofa
       B
Y si lloro me equivoco
       E
No me falta valentía
      B           E/G#
Pero sigo siendo vulnerable
F#
Si oigo tu voz

ESTROF  4:
       B
Y si cualquiera me pregunta
      E
Como camuflar mi herida
         B                  E/G#
Yo he aprendido a convivir con ella
F#
Sin decirte adiós


Pre coro:
      E
Y aún recuerdo
      B          F#
La locura y el miedo
      E            B        F#
El intento de guardar un secreto
      E        Em
Y no puedo más

CORO

Instrumental:

B       E
B       F#
Página 1 / 1

Letras y titulo
Acordes y artista

restablecer los ajustes
OK