Bom Natal

Natal

tono: C
Introduçao: C

  C             Dm7
Quero ver você não chorar                               
      Em7                      F                G7
Não olhar pra traz, nem se arrepender do que faz        
  C           G7
Quero ver o amor crescer                                         X2
          Em7                 F             G7
Mas se a dor nascer, você resistir e sorrir             
 Am           Em             F                  G7
Se você pode ser assim tão enorme assim eu vou crer      

 Dm                  Em
Que o natal existe, que ninguém é triste
F            D7         G7
Que no mundo ha sempre amor
 Am            Em
Bom Natal, Um Feliz Natal
         F              G7
Muito Amor e Paz pra voces (toque o acorde apenas uma vez)
       C
Prá vocês.

Solo:
(se voce souber o tempo consegue facil facil/o solo é de acordo com a 1ª parte da letra)
E|----------------------------------------5--------------|
B|---5---------5--6--5-----5-6-8-6-5-6-8------8-6-5-6----|
G|------7-5-7-----------7-----------------------------7--|
D|-------------------------------------------------------|
A|-------------------------------------------------------|
E|-------------------------------------------------------|

E|----------------------------------------5----------5-7-|
B|---5---------5--6--5-----5-6-8-6-5-6-8------8-6-8------|
G|------7-5-7-----------7--------------------------------|
D|-------------------------------------------------------|
A|-------------------------------------------------------|
E|-------------------------------------------------------|

E|--8-7-5------5-7-5----------5--------------------------|
B|---------8----------8-6-8------8-6-5-6-----------------|
G|-----------------------------------------7-------------|
D|-------------------------------------------------------|
A|-------------------------------------------------------|
E|-------------------------------------------------------|


SOLO (2ª parte)


E|-------------------5----------5-7------7------------------|
B|---5-6-8-5---5-6-8---6-5--6-8-----8-6---------------------|
G|-7---------7----------------------------------------------|
D|----------------------------------------------------------|
A|----------------------------------------------------------|
E|----------------------------------------------------------|

E|-8-7-5---5-7-5-------5---------------------------------|
B|-------8-------8-6-8---8-6-5-6----------3-5------------|
G|-------------------------------7-----------5-----------|
D|-------------------------------------------------------|
A|-------------------------------------------------------|
E|-------------------------------------------------------|


 Dm                  Em
Que o natal existe, que ninguém é triste
F            D7         G7
Que no mundo ha sempre amor
 Am            Em
Bom Natal, Um Feliz Natal
         F              G7
Muito Amor e Paz pra voces (toque o acorde apenas uma vez)
      C
Prá vocês.
Página 1 / 1

Letras y titulo
Acordes y artista

restablecer los ajustes
OK