Casulo

Natiruts

Composição: Alexandre Carlo
INTRO DO BAIXO

G--------------------------------------------------------------------
D------------------------------------7-7-----------------------------
A-----4---4-4------5-5-5-5-5-7-7---------9-7-7-5-5-5-5-5-7-7---------
E-5-5---5-----5-5----------------5-5---------------------------------


...até pensei...
G--------------------------------------------------------------------
D--------------------------16----------------------------------------
A--------------------16-14-------------------------------------------
E-2-2-0-2-2--2/14-14-------------------------------------------------

C# B A
(REPETE 2X)


...vou pedir...
G---------------------4-2------------------------------
D---------4-2--2-2-2---------------6-4--6-4---4--------
A-2-2-2-2------------------4-4-4-4----------6---6-5-4--
E------------------------------------------------------

REPETE TUDO.

solo final
G---------------------------------------------
D---------------------------------------------
A-------5-5-5-5-5-7-7-----------5-5-5-5-5-7-7-
E-5-5-5-------------------5-5-5---------------
DEPOIS VOLTA PRA INTRO DO BAIXO
Página 1 / 1

Letras y titulo
Acordes y artista

restablecer los ajustes
OK