Cavaleiros Azuis

Natiruts

Intro:
G:|---------------------------------------------------------
D:|--2--0—-2/12---------------------------------------------
A:|---------------12/0--------3—-3-—5-—5--3--3-------------
E:|---------------------5--5-------------------5-------------

G:|---------------------------------------------------------
D:|--2--0--2-----------------------------------------------
A:|-----------------3--3-----------------------------------
E:|-----------5--5--------5--5--3--3—-0---------------------
  Repete trecho acima.
A noite|chegou...
       |      
G:|----|-----------------------------------------------------
D:|----|-----------------------------------------------------
A:|----|7--5--7--------3--3--5--5--3--3----------------------
E:|--------------5--5--------------------5-------------------


G:|-------------------------------------------------------
D:|-------------------------------------------------------
A:|-----7--5--7--------3--3-------------------------------
E:|--------------5--5--------5--5--3--3--0----------------
  Fica variando entre os dois trechos acima 
  
REFRÃO:      
        Cavaleiros azuis...
G:|---------------------------------------------------------
D:|---------------------------------------------------------
A:|-----7--5--7------2-3-2----------------------------------
E:|--------------0-3-------3--0--3-3-3-5-5-5—-3—5-----------

G:|---------------------------------------------
D:|-----------------------------------------------------
A:|-------2------2-2-2-2/9---9-------------------
E:|-----3---5--3-----------7---------------------
  "repete trecho acima


_______________________________________________________
Contribuição: Gabriel Costa Maia Santos(gabrielcms@ig.com.br)
Página 1 / 1

Letras y titulo
Acordes y artista

restablecer los ajustes
OK