Eu e Ela / Waiting in Vain (pout-pourri)

Natiruts

Composición de: Natiruts
INTRODUÇÃO
A D(cifras)

A MÚSICA SÓ TEM ESSAS DUAS BASES(bem fácil)

G----------------------------
D----------------------------
A---------3-5-3-5-5-3--------
E-5-3-5-5-------------5------

G------------------------------------------
D------------------------------------------
A-------------------3-5-5-5-3-5-5-3-5-5-3--
E-5-5-5-3-5-5-3-5-5------------------------
Página 1 / 1

Letras y titulo
Acordes y artista

restablecer los ajustes
OK