Misteriosa Atração

Natiruts

Composición de: Isabela
Introdução

    6x                     7x  voz 
G---------------------|----------------|----------------------------------------|
D---------------------|----------------|----------------------------------------|
A----5----------------|---55-77-99-----|----55-77-99--77-99-1010--55-77-99------|
E-7-7-7-5-7-3-33------|-77--------8-88-|--77--------88----------77--------8-88--|
 3x                  8x linda princesa       interludio                    
G------------------|------------------|------------------9------9------------------------------|
D------------------|------------------|--5-------5--------9-7----9-7----5------5---------------|
A---55-77-99-------|-----5------------|---5-3-----5-3--------8-7----8-7--5-3----5-3-------1----|
E-77--------8-88---|--7-7-7-5-7-3-33--|------4-3-----4-3--------------------4-3----4-3-1-3-3---|

cont interludio                      volta no começo                             
G------------------9------9----------------|
D---5------5--------9-7----9-7-------------|
A----5-3----5-3--------8-7----8-7--8--7----|
E-------4-3----4-3----------------6-6------|

acho q ta tudo certo galera escutem bem essa musica pra vcs fazerem no tempo certo
Página 1 / 1

Letras y titulo
Acordes y artista

restablecer los ajustes
OK