Presente De Um Beija-Flor

Natiruts

Composición de: Natiruts
presente de um beija flor


introducao
G---------------------|
D------32-------------|
A-----5-----355--35---|
E-3-56----36----6-----|


G--------------------------------------------------------------|
D-------32---2----------------------32---2---3332220-0-0/2-----|  2
A----35-----5-53-----35-5305530---35----5-535------------------|  x     
E-356-----------35-35----------356-----------------------------|


beija-flor q trouxe meu amor... 
G----------------------------------
D----------------------------------
A--------3333--33-----35-3035530---
E-33-1131----33--5--35-------------

veja soh  a nevoa branca que sai...
G----------------------------|
D------32--------------------|
A-----5-----355--355-3-3/5-3-|
E-3-56----36-----------------|
Página 1 / 1

Letras y titulo
Acordes y artista

restablecer los ajustes
OK