Semente Nativa

Natiruts

Riff 1:
G|---------------------------------------------|
D|---------------------------------------------|
A|----3h5-3-2---------0-0-0-0-3h2--------------|
E|3-3---------3-0-3-3-------------3-0-3-3-5-3--|

Riff 2:
G|--------------------------------------------|
D|--------------------------------------------|
A|--5-----5---------2-2-0---------------------|
E|0---7-0---7-0--3-3------3-5--3-5-3-5-5-3-3--|

Riff 3:
G|--------------9-7----------------------------|
D|----------7/9-----7h9-7----------------------|
A|5-7---5-7---------------9--------------------|
E|----7---------------------7--7-5-7--5-5-5-5--|

Riff 4:
G|----------------9-7----------------------------|
D|------------7/9-----7h9-7----------------------|
A|5-6-7---5-7---------------9--------------------|
E|------7---------------------7--7-5-7--5-5-5-5--|

Riff 5:
G|------------------------------------------------------------------|
D|--------------------------------------------------------------12--|
A|5-4-3-3---3-3-3-3---3--2-2---2-2-2-2---2-----------------5/12-----|
E|--------3---------3--------2---------2---5-3-5-5-3-5-3-5----------|

Intro.:
G|------------------------------------------------------------|
D|------------------------------------------------------------|
A|------5/\----------3h5-3-2---------0-0-0-0-3h2--------------|
E|3---5----------3-3---------3-0-3-3-------------3-0-3-3-5-3--|

G|---------------------------------------------|
D|---------------------------------------------|
A|----3h5-3-2---------0-0-0-0-3h2--------------|
E|3-3---------3-0-3-3-------------3-0-3-3-5-3--|

G|---------------------------------------------|
D|---------------------------------------------|
A|----3h5-3-2---------0-0-0-0-3h2--------------|
E|3-3---------3-0-3-3-------------3-0-3-3-5-3--|

Refrão:
(Riff 1)
Plantei uma flor no coração dela
(Riff 1)
Plantei uma flor no coração dela
(Riff 1)
Plantei uma flor no coração dela
(Riff 1)
Plantei uma flor no coração dela

(Riff 2)        
E ela me deu um sorriso trazendo paz
(Riff 2)   
Agradeço ao meu senhor por fazer dela o meu bem-querer
(Riff 2)     
Trago ervas de cor pra enfeitar a menina mais bela
(Riff 2)        
Como a gota de orvalho na flor do cerrado quando é primavera

Refrão:
(Riff 1)
Plantei uma flor no coração dela
(Riff 1)
Plantei uma flor no coração dela
(Riff 1)
Plantei uma flor no coração dela
(Riff 1)
Plantei uma flor no coração dela

(Riff 3)
Por medo de perder você
                        (Riff 4)
Que uma semente nativa fui buscar

E os obstáculos que enfrentei

Não me impediram de continuar
(Riff 5)
  E quando um milhão de milhas percorri

E com todo carinho lhe entreguei

A semente então desabrochou

Sob a lua cheia.

Refrão:

(Riff 1)
Plantei uma flor no coração dela
(Riff 1)
Plantei uma flor no coração dela
(Riff 1)
Plantei uma flor no coração dela
(Riff 1)
Plantei uma flor no coração dela

(Riff 2)        
E ela me deu um sorriso trazendo paz
(Riff 2)   
Agradeço ao meu senhor por fazer dela o meu bem-querer
(Riff 2)     
Trago ervas de cor pra enfeitar a menina mais bela
(Riff 2)        
Como a gota de orvalho na flor do cerrado quando é primavera

Refrão:

(Riff 1)
Plantei uma flor no coração dela
(Riff 1)
Plantei uma flor no coração dela
(Riff 1)
Plantei uma flor no coração dela
(Riff 1)
Plantei uma flor no coração dela

(Riff 3)
Por medo de perder você
                        (Riff 4)
Que uma semente nativa fui buscar

E os obstáculos que enfrentei

Não me impediram de continuar
(Riff 5)
  E quando um milhão de milhas percorri

E com todo carinho lhe entreguei

A semente então desabrochou

Sob a lua cheia.

Refrão:

(Riff 1)
Plantei uma flor no coração dela
(Riff 1)
Plantei uma flor no coração dela
(Riff 1)
Plantei uma flor no coração dela
(Riff 1)
Plantei uma flor no coração dela

Riff 1:

G|---------------------------------------------|
D|---------------------------------------------|
A|----3h5-3-2---------0-0-0-0-3h2--------------|
E|3-3---------3-0-3-3-------------3-0-3-3-5-3--|

G|---------------------------------------------|
D|---------------------------------------------|
A|----3h5-3-2---------0-0-0-0-3h2--------------|
E|3-3---------3-0-3-3-------------3-0-3-3-5-3--|

G|---------------------------------------------|
D|---------------------------------------------|
A|----3h5-3-2---------0-0-0-0-3h2--------------|
E|3-3---------3-0-3-3-------------3-0-3-3-5-3--|

G|---------------------------------------------|
D|---------------------------------------------|
A|----3h5-3-2---------0-0-0-0-3h2--------------|
E|3-3---------3-0-3-3-------------3-0-3-3-5-3--|
Página 1 / 1

Letras y titulo
Acordes y artista

restablecer los ajustes
OK