Ao Mundo Vou Contar

Nilton César

Composição de: Tommy Standen
tono: E
[Intro] E  F#m  B7  E7  F#m  B  E 

[Solo de intro]

E|-------14-13-------14-13-----14-13------16-14---|
B|----12----------12---------14---------16--------|
G|-13----------13----------14---------16----------|
D|------------------------------------------------|
A|------------------------------------------------|
E|------------------------------------------------|

E         C#m  A            B7
Eu Descobri amor em teu olhar
E           C#m   F#m          B7
 Sou tão feliz e quero até gritar
         E           C#m  A
Quero ao vento espalhar
    B            E  C#m  A  B7  E
Ao mundo vou contar
           C#m   F#m       B7
Quando te vi queria te dizer
E         C#m  F#m             B7  
 Que para mim éras meu bem querer
          E          C#m  A
Nos teus olhos eu achei
   B          E  E7
Razão para viver
Am                       G#m
  Quando saímos lado a lado no jardim
Am                        G#m        E7
  Senti que o mundo fora feito para mim 
A                            G#m
  É teu amor que faz com que eu me sinta assim
     F#7                      B  C  F  Gm  C  F  Gm  C  F7
E a vida ao teu lado não tem fim

E|-------15-14-------15-14-----15-14------17-15---|
B|----13----------13---------15---------17--------|
G|-14----------14----------15---------17----------|
D|------------------------------------------------|
A|------------------------------------------------|
E|------------------------------------------------|

E a vida ao teu lado não tem fim
Bbm                     F         F7
 Quando saímos lado a lado no jardim
Bbm                      F          Am 
 Senti que o mundo fora feito para mim
Bb                           Am             D7
  É teu amor que faz com que eu me sinta assim
     G7                       C
E a vida ao teu lado não tem fim
F           Dm    Gm        C7
 Quando te vi queria te dizer
F          Dm   Gm             C7
 Que para mim éras meu bem querer
          F          Dm  Bb
Nos teus olhos eu achei
  C           F  Dm  Bb
Razão para viver 
   C          F  Dm  Bb  C
Razão para viver
Página 1 / 1

Letras y titulo
Acordes y artista

restablecer los ajustes
OK