My Violent Heart

Nine Inch Nails

Composición de: Trent Reznor
tono: Bb
Verse
E|-----------------|
B|-----------------|
G|-----------------|
D|-----------------|
A|0---1------------|
D|-----------------|

No Guitar In Chorus But The Interlude Fits The Part

Interlude (Something Like This. Hard to Figure Out)
E|-----------------|
B|-------3h4-3h4---|
G|----3----------1-|
D|-----------------|
A|1-1--------------|
D|-----------------|

Oi! Oi! Oi!
Página 1 / 1

Letras y titulo
Acordes y artista

restablecer los ajustes
OK