Cifra Club

Aprenda

The Beginning Of The End

Nine Inch Nails

Tab de bajo: Principal
Tabbed By : Madkat / Daniel S.

Tuning: Drop D


Bass Starts at 1:01

  Verse									     X8
G||---------------------||--------------------------|------------------------||
D||---------------------||*-------------------------|-----------------------*||
A||----------3--3--3----||*--5--5--5--5--5----5--5--|--5----5----3--3--3----*||
D||---------------------||--------------------------|------------------------||

 Chorus
G||-------------------------|-----------------------|-------------------------|
D||-------------------------|-----------------------|-------------------------|
A||--1--1--1--1--1----1--1--|--1--1--1----1--1--1---|-------------------------|
D||-------------------------|-----------------------|--5--5--5--5--5----5--5--|

G||--------------------------|-------------------------|----------------------|
D||--------------------------|-------------------------|----------------------|
A||--------------------------|-------------------------|-----------3--3--3-3/-|
D||--5----5----5s--7--7s--0--|--0--0--0--0--0----0--0--|-0----0---------------|

G||-------------------------|-----------------------||
D||-------------------------|-----------------------||
A||--5--5--5--5--5----5--5--|--5----5----3--3--3----||
D||-------------------------|-----------------------||

G||-------------------------|-----------------------|-------------------------|
D||-------------------------|-----------------------|-------------------------|
A||--1--1--1--1--1----1--1--|--1--1--1----1--1--1---|-------------------------|
D||-------------------------|-----------------------|--5--5--5--5--5----5--5--|

G||--------------------------||
D||--------------------------||
A||--------------------------||
D||--5----5----5s--7--7s--0--||

G||-------------------|------------------|-----------------|-----------------||
D||-------------------|------------------|-----------------|-----------------||
A||-------------------|------------------|-----------------|-----------------||
D||-------------------|------------------|-----------------|-----------------||

  Verse									     X4
G||---------------------||--------------------------|------------------------||
D||---------------------||*-------------------------|-----------------------*||
A||----------3--3--3----||*--5--5--5--5--5----5--5--|--5----5----3--3--3----*||
D||---------------------||--------------------------|------------------------||

 Chorus
G||-------------------------|-----------------------|-------------------------|
D||-------------------------|-----------------------|-------------------------|
A||--1--1--1--1--1----1--1--|--1--1--1----1--1--1---|-------------------------|
D||-------------------------|-----------------------|--5--5--5--5--5----5--5--|

G||--------------------------|-------------------------|----------------------|
D||--------------------------|-------------------------|----------------------|
A||--------------------------|-------------------------|-----------3--3--3-3/-|
D||--5----5----5s--7--7s--0--|--0--0--0--0--0----0--0--|--0---0---------------|

G||-------------------------|-----------------------||
D||-------------------------|-----------------------||
A||--5--5--5--5--5----5--5--|--5----5----3--3--3----||
D||-------------------------|-----------------------||

G||-------------------------|-----------------------|-------------------------|
D||-------------------------|-----------------------|-------------------------|
A||--1--1--1--1--1----1--1--|--1--1--1----1--1--1---|-------------------------|
D||-------------------------|-----------------------|--5--5--5--5--5----5--5--|

G||--------------------------||
D||--------------------------||
A||--------------------------||
D||--5----5----5s--7--7s--0--||




| /  slide up
| \  slide down
| h  hammer-on
| p  pull-off
| ~  vibrato
| +  harmonic
| x  Mute note
===============================================================================
Compositor Trent Reznor
12 reproducciones

0 comentarios

Mostrar mais comentários

¿Conseguiste tocar?

0 Tocaron 0 Ainda não

Grave um vídeo tocando The Beginning Of The End e mande pra gente!

00:00 / 00:00
outros vídeos desta música
repetir qualidade Automático
Outros vídeos desta música
00:00 / 00:00
Automático

Cifra Club Pro

Aproveite o Cifra Club com benefícios exclusivos e sem anúncios
7 dias grátis
Cifra Club Pro
Aproveite o Cifra Club com benefícios exclusivos e sem anúncios
7 dias grátis
OK