Don't Want It All

Nirvana

Composición de: Kurt Cobain
Tuning- Stanard tuning but it also sounds cool with DGDG

Intro: (1 time)

G|---------------------------------------------------------------------------|
D|---------------------------------------------------------------------------|
A|---------------------------------------------------------------------------|
E|-11-9-11-0-(Let ring for about 6 beats)------------------------------------|

Verse: (7 times)

G|---------------------------------------------------------------------------|
D|---------------------------------------------------------------------------|
A|---------------------------------------------------------------------------|
E|-0-/-11-9-11-0-(Let ring for about 6 beats)--------------------------------|

You can do variations of the verse:

G|---------------------------------------------------------------------------|
D|---------------------------------------------------------------------------|
A|---------------------------------------------------------------------------|
E|-11-9-11-0-(Let ring for about 6 beats-)-----------------------------------|

or

G|---------------------------------------------------------------------------|
D|---------------------------------------------------------------------------|
A|---------------------------------------------------------------------------|
E|-0-/-11-9-11-0--0-0-0--0--0-0----------------------------------------------|

or

G|---------------------------------------------------------------------------|
D|---------------------------------------------------------------------------|
A|---------------------------------------------------------------------------|
E|-11-9-11-0--0-0-0--0--0-0--------------------------------------------------|

or

G|---------------------------------------------------------------------------|
D|---------------------------------------------------------------------------|
A|---------------------------------------------------------------------------|
E|-0-/-11-16-11-0-(Let ring for 6 beats)-------------------------------------|

or

G|---------------------------------------------------------------------------|
D|---------------------------------------------------------------------------|
A|---------------------------------------------------------------------------|
E|-0-/-11-16-11-0--0-0-0--0--0-0---------------------------------------------|

Many variations!

Chorus: (4 times)

There's 3 different ways to play the chorus depending on which one you think sounds best.

G|---------------------------------------------------------------------------|
D|---------------------------------------------------------------------------|
A|-9-99-6-5------------------------------------------------------------------|
E|----------4----------------------------------------------------------------|

or

G|---------------------------------------------------------------------------|
D|---------------------------------------------------------------------------|
A|-9-99-5-4------------------------------------------------------------------|
E|----------4----------------------------------------------------------------|

or

G|---------------------------------------------------------------------------|
D|---------------------------------------------------------------------------|
A|-9-99-6-4------------------------------------------------------------------|
E|----------4----------------------------------------------------------------|

Post chorus: (3 times)

Again there is more than one way you can play it.

G|---------------------------------------------------------------------------|
D|---------------------------------------------------------------------------|
A|-5----5----5---------------------------------------------------------------|
E|---4----4----4-(Let ring for 6 beats)--------------------------------------|

or

G|---------------------------------------------------------------------------|
D|---------------------------------------------------------------------------|
A|-4----4----4---------------------------------------------------------------|
E|---4----4----4-(Let ring for 6 beats)--------------------------------------|

Song Order:

Intro x1
Verse x7
Chorus x4
Post chorus x3
Verse x10

For the last 4 or 5 verses don't slide from 0 to 11
Página 1 / 1

Letras y titulo
Acordes y artista

restablecer los ajustes
OK