Secrets

OneRepublic

Composição de: Ryan Tedder
tono: D
(intro) D  F#m  Bm  G

      D                               F#m
E|-------------------------------------------------------------------
B|-------------------------------------------------------------------
G|-------2---2-----------2---2-----------2---2-----------2---2-------
D|-----4---4---4---4---4---4---4---4---4---4---4---4---4---4---4---4-
A|---5-----------5---5-----------5---4-----------4---4-----------4---
E|-------------------------------------------------------------------
      Bm                              G
E|-------------------------------------------------------------------
B|-------------------------------------------------------------------
G|-------4---4-----------4---4-----------4---4-----------0---0-------
D|-----4---4---4---4---4---4---4---4---------------------------------
A|---2-----------2---2-----------2-----5---5---5---5---5---5---5-----
E|-----------------------------------3-----------3---3---------------


(verse 1)
               D
I need another story
                  F#m
Something to get off my chest
                      Bm
My life gets kind off boring
                       G
Need something that I can confess

             D
Till all my sleeves are stained red
              F#m
From all the truth that I've said
           Bm
Come by, it honestly I swear
                  G
Thought you saw me wink

No, I've been on the brink, so

(chorus)
           D
Tell me what you want to hear
                     F#m
Something that'll like those ears
            Bm
Sick of all the insincere
                  G
So I'm gonna give all my secrets away
       D                        F#m
This time  don't need another perfect lie
                             Bm
Don't care if critics never jumped in line
               G
I'm gonna give all my secrets away

(verse 2)
    D                  F#m
My god  amazing how we got this far
                        Bm
It's like we were chasing all those stars
                    G
Who's driving shiny big black cars

        D
And everyday I see the news

All the problems that we could solve
             F#m
And when a situation rises

Just write it into an album
          Bm
Sitting straight  too low
                    G
And I don't really like my flow, oh,  so

(chorus)
           D
Tell me what you want to hear
                     F#m
Something that'll like those ears
            Bm
Sick of all the insincere
                  G
So I'm gonna give all my secrets away
       D                        F#m
This time  don't need another perfect lie
                             Bm
Don't care if critics never jumped in line
               G
I'm gonna give all my secrets away
( D  F#m  Bm  G )

(bridge)
     D                         F#m
Oooh  got no reason  got not shame
                    Bm
Got no family I can blame
                   G
Just don't let me disappear

I'mma tell you everything

(chorus 2x)
           D
Tell me what you want to hear
                     F#m
Something that'll like those ears
            Bm
Sick of all the insincere
                  G
So I'm gonna give all my secrets away
       D                        F#m
This time  don't need another perfect lie
                             Bm
Don't care if critics never jumped in line
               G
I'm gonna give all my secrets away

All my secrets away

All my secrets away.
Página 1 / 1

Letras y titulo
Acordes y artista

restablecer los ajustes
OK