Gott Ist Ein Popstar

Oomph!

Composición de: Oomph!
tono: E
verse:
d|-12-11-----12-11-----12-11-----12-11-------------------------------------|
A|-------------------------------------------------------------------------|
F|-------------------------------------------------------------------------|
C|-------------------------------------------------------------------------|
G|-------------------------------------------------------------------------|
C|-------------------------------------------------------------------------|

chorus x2
d|-------------------------------------------------------------------------|
A|-------------------------------------------------------------------------|
F|-------------4-4---------------------------------------------------------|
C|-2-2-2-2-2-2-4-4-4-4-4-4-4-4-2-2-6-6-6-6-6-6-6-6-9-9-9-9-9-9-9-1---------|
G|-2-2-2-2-2-2-2-2-4-4-4-4-4-4-2-2-6-6-6-6-6-6-6-6-9-9-9-9-9-9-9-1---------|
C|-2-2-2-2-2-2-----4-4-4-4-4-4-2-2-6-6-6-6-6-6-6-6-9-9-9-9-9-9-9-1---------|

d|-------------------------------------------------------------------------|
A|-------------------------------------------------------------------------|
F|-------------4-4---------------------------------------------------------|
C|-2-2-2-2-2-2-4-4-4-4-4-4-4-4-4-4-1-1-1-1-1-1-1-1-4-4-4-4-4-4-4-4---------|
G|-2-2-2-2-2-2-2-2-4-4-4-4-4-4-4-4-1-1-1-1-1-1-1-1-4-4-4-4-4-4-4-4---------|
C|-2-2-2-2-2-2-----4-4-4-4-4-4-4-4-1-1-1-1-1-1-1-1-4-4-4-4-4-4-4-4---------|

Verse:
guitar one
d|-12-11-----12-11-----12-11-----12-11-------------------------------------|
A|-------------------------------------------------------------------------|
F|-------------------------------------------------------------------------|
C|-------------------------------------------------------------------------|
G|-------------------------------------------------------------------------|
C|-------------------------------------------------------------------------|

guitar two
d|-------------------|
A|-------------------|
F|-------------------|
C|---4-6--9-6--4-6---|
G|---4-6--9-6--4-6---|x4
C|---4-6--9-6--4-6---|

chorus x2
d|-------------------------------------------------------------------------|
A|-------------------------------------------------------------------------|
F|-------------4-4---------------------------------------------------------|
C|-2-2-2-2-2-2-4-4-4-4-4-4-4-4-2-2-6-6-6-6-6-6-6-6-9-9-9-9-9-9-9-1---------|
G|-2-2-2-2-2-2-2-2-4-4-4-4-4-4-2-2-6-6-6-6-6-6-6-6-9-9-9-9-9-9-9-1---------|
C|-2-2-2-2-2-2-----4-4-4-4-4-4-2-2-6-6-6-6-6-6-6-6-9-9-9-9-9-9-9-1---------|

d|-------------------------------------------------------------------------|
A|-------------------------------------------------------------------------|
F|-------------4-4---------------------------------------------------------|
C|-2-2-2-2-2-2-4-4-4-4-4-4-4-4-4-4-1-1-1-1-1-1-1-1-4-4-4-4-4-4-4-4---------|
G|-2-2-2-2-2-2-2-2-4-4-4-4-4-4-4-4-1-1-1-1-1-1-1-1-4-4-4-4-4-4-4-4---------|
C|-2-2-2-2-2-2-----4-4-4-4-4-4-4-4-1-1-1-1-1-1-1-1-4-4-4-4-4-4-4-4---------|

Bridge
d|-----------------------------------------------------------------------|
A|-----------------------------------------------------------------------|
F|-----------------------------------------------------------------------|
C|-2-2-2-2-2-2-2-2-2-2-2-2-2-2-2-2-66--66--66--66--6---------------------|x4
G|-2-2-2-2-2-2-2-2-2-2-2-2-2-2-2-2-66--66--66--66--6---------------------|
C|-2-2-2-2-2-2-2-2-2-2-2-2-2-2-2-2-66--66--66--66--6---------------------|

chorus x2
d|-------------------------------------------------------------------------|
A|-------------------------------------------------------------------------|
F|-------------4-4---------------------------------------------------------|
C|-2-2-2-2-2-2-4-4-4-4-4-4-4-4-2-2-6-6-6-6-6-6-6-6-9-9-9-9-9-9-9-1---------|
G|-2-2-2-2-2-2-2-2-4-4-4-4-4-4-2-2-6-6-6-6-6-6-6-6-9-9-9-9-9-9-9-1---------|
C|-2-2-2-2-2-2-----4-4-4-4-4-4-2-2-6-6-6-6-6-6-6-6-9-9-9-9-9-9-9-1---------|

d|-------------------------------------------------------------------------|
A|-------------------------------------------------------------------------|
F|-------------4-4---------------------------------------------------------|
C|-2-2-2-2-2-2-4-4-4-4-4-4-4-4-4-4-1-1-1-1-1-1-1-1-4-4-4-4-4-4-4-4---------|
G|-2-2-2-2-2-2-2-2-4-4-4-4-4-4-4-4-1-1-1-1-1-1-1-1-4-4-4-4-4-4-4-4---------|
C|-2-2-2-2-2-2-----4-4-4-4-4-4-4-4-1-1-1-1-1-1-1-1-4-4-4-4-4-4-4-4---------|
Página 1 / 1

Letras y titulo
Acordes y artista

restablecer los ajustes
OK