Blue Monday

Orgy

Composición de: Bernard Sumner / Gillian Gilbert / Peter Hook / Stephen Morris
tono: A
chorus        not distorted        (let notes echo)
]----------------------------------------------------------[
]----------------------------------------------------------[
]----------------------------------------------------------[
]----------------------------------------------------------[
]5-5-5-7---------------------7-7-7-7-----------------------[
]-------5-5-5-7-7-7-7-7-7-7-7-------5-5-5-7-7-7-7-7-7-7-7--[


verse:(how does it feel, how should I feel)   distorted
]----------------------------------------------------------[
]----------------------------------------------------------[
]----------------------------------------------------------[
]----------------------------------------------------------[
]12-12-12-12-/-7-7-7-\-9-9-9-9-9-9-9-9--14-14-14-14--------[
]10-10-10-10-/-5-5-5-\-7-7-7-7-7-7-7-7--12-12-12-12--------[
                      ^^         ^after this,^
                                      just repeat from  
/-slide up                          7-7 and on, from there
\-slide down                        5-5

Tell me what you think.  I just really tried sounding it out from the song onto my guitar.
Página 1 / 1

Letras y titulo
Acordes y artista

restablecer los ajustes
OK