Blue Monday

Orgy

Composición de: Bernard Sumner / Gillian Gilbert / Peter Hook / Stephen Morris
tono: G
Hey this almost 100% correct

INTRO/VERSE:
E-----------------------------------------------------------
B-----------------------------------------------------------
G-----------------------------------------------------------
D---4446----------------------------------------------------
A--------4446666666-----------------------------------------
E-----------------------------------------------------------

INTRO PART TWO:
E-----------------------------------------------------------
B-----11------------------11--------------------------------
G-------11-----12------------11-----9-----------------------
D-----------------------------------------------------------
A-----------------------------------------------------------
E-----------------------------------------------------------

CHORUS:

E-----------------------------------------------------------
B-----------------------------------------------------------
G----------------------4444---------------------------------
D-7777222244444444-----4444222244444444---------------------
A-7777222244444444-----2222222244444444---------------------
E-5555000022222222---------000022222222---------------------

SOLO:
E-----------------------------------------------------------
B-----------------------------------------------------------
G-----------------------------------------------------------
D---------------8-------8-----------------------------------
A----6-4---4-6----9-4-6---9-6-6-----------------------------
E--------6--------------------------------------------------
Página 1 / 1

Letras y titulo
Acordes y artista

restablecer los ajustes
OK