Blue Monday

Orgy

Composición de: Bernard Sumner / Gillian Gilbert / Peter Hook / Stephen Morris
Tuning: Standard Four String Bass (Db Gb B E)

This is the filler (Everything except the Solo):

 E||------------------------------------------------------------------------|
 B||------------------------------------------------------------------------|
Gb||-0-0-0-0-------------------------2-2-2-2------------------------2-2-2-2-|
Db||---------0-0-0-0-2-2-2-2-2-2-2-2--------0-0-0-0-2-2-2-2-2-2-2-2---------|

Play this during Amir's solo:

 E||---------------------------------|
 B||---------------------------------|
Gb||-----------------2-2-------------|
Db||-5-5-0-0-2-2-2-2-----0-0-2-2-2-2-|

This should work.  Please send comments to *.
Página 1 / 1

Letras y titulo
Acordes y artista

restablecer los ajustes
OK