Cross

Ozielzinho

Composición de: Oziel Filho
tono: G
      ARPEJO DE G (SOL) MENOR

 e||----------6-10-15-10-6-----3-------||
 B||---------8------------8---3-3------||
 G||------3-7--------------7-3---3-----||
 D||-----5------------------------5----||
 A||----5--------------------------5---||
 E||-3-6----------------------------6-3||

      ARPEJO DE C (DÓ) MENOR
 e||--------------11-15-20-15-11-------8---------||
 B||------------13--------------13----8-8--------||
 G||--------8-12------------------12-8---8-------||
 D||------10------------------------------10-----||
 A||-----10--------------------------------10----||
 E||-8-11------------------------------------11-8||

      ARPEJO DE A (LÁ)

 e||--------3-8-3-------||
 B||-------4-----4------||
 G||------5-------5-----||
 D||-----7---------7----||
 A||----6-----------6---||
 E||-5-8-------------8-5||

      ARPEJO DE A# (LÁ SUSTENIDO) MAIOR

 e||-------------10-13-18-13-10-------6------||
 B||-----------11--------------11----6-6-----||
 G||-------7-10------------------10-7---7----||
 D||------8------------------------------8---||
 A||-----8--------------------------------8--||
 E||-6-10----------------------------------10||

      ARPEJO DE D (RÉ) MAIOR

 e||----------------14-17-20-17-14---------10--------------||
 B||--------------15--------------15-----10--10------------||
 G||----------11-14------------------14-11------11---------||
 D||-------12-------------------------------------12-------||
 A||------12----------------------------------------12-----||
 E||-10-14--------------------------------------------14-10||

 DEPOIS O ARPEJO DE G (SOL) MENOR O PRIMEIRO QUE EU FIZ

 DEPOIS UMA SUCESSÃO DE NOTAS EM D# (RÉ SUSTENIDO) E TERMINA EM G (SOL).

 OBRIGADO!!!!!
Página 1 / 1

Letras y titulo
Acordes y artista

restablecer los ajustes
OK