Kaleidoscope World Solo

Parokya Ni Edgar

tono: C
pagpasensyahan nyo na po!!! eh kac bago p lng me eh!! medyo d n tono guitar ko!!

e--10h12--------------------------------7--------------]  2x
b------12-10h12-8-8h10-------------8h10---10-8-10-8----]
g---------------------7-7h9-7--7h9-----------------9-7-]
d------------------------------------------------------]
a------------------------------------------------------]
e------------------------------------------------------]

e-12-10------------------------------------------]
b------12-10--------------8--------8-8--------8--]
d-----------12-10-12---7h8------7h8-7------7h8---]
g-------------------7h8------7h8--------7h8------]
a------------------------------------------------]
e------------------------------------------------]

e-10h12-10--10h12---] 
b---------12-----12-]
d-------------------] 
g-------------------]
a-------------------]
e-------------------]

e--------------------------------------12-10-----------------]
b-12-10-10-12---12-10-12-10-12-10-12-10-----12-12------------]
d------------------------------------------------12-10-12-10-]
g------------------------------------------------------------]
a------------------------------------------------------------]
e------------------------------------------------------------]

e-----------------------15-12--10-----------]  2x
b------15-----13-----15----------12-10------]
d-12-12--12-12--12-12-----------------12-10-]
g-------------------------------------------]
a-------------------------------------------]
e-------------------------------------------]

e-15-13-12-15----15-13-12-15----15-13-12-15----15-14h15-]  2x
b------------12-------------12-------------12-----------]
d-------------------------------------------------------]
g-------------------------------------------------------]
a-------------------------------------------------------]
e-------------------------------------------------------]

para to sa mga ka bnd ko!!!!!!!! hoy my tab n ako
pasensya n po ulit!! magte13 pa lng po kc me ngaung 2005.
sana magandahan kau
Página 1 / 1

Letras y titulo
Acordes y artista

restablecer los ajustes
OK