Scarborough Fair Intro

Paul Simon

tono: E (con acordes en la forma de A ) Capotraste en 7ª casa
capo 7 fret

----0-----------------|
------------3---------|
------0--------0------|   x2
---------4------------|
--0-------------------|                              tabbed by:
----------------------|                                Afc1992

---------------------|
----0----------------|
--------0------------|
---------------------|
--3--------2---------|
---------------------|

----0-----------------|
------------3---------|
------0--------0------|
---------4------------|
--0-------------------|
----------------------|

------0----------------|
---------------0-------|
---------2---------2---|
------------2----------|
--0--------------------|
-----------------------|

----0-----------------|
------------3---------|
------0--------0------|
---------4------------|
--0-------------------|
----------------------|

------0----------------|
---------------0-------|
---------2---------2---|
------------2----------|
--0--------------------|
-----------------------|

Pretty simple!
Página 1 / 1

Letras y titulo
Acordes y artista

restablecer los ajustes
OK