Gold Lion

Pitty

Composición de: Yeah Yeah Yeahs
tono: A
[F#   A     E     A]
Gold Lion, Gonna show me where the light is
Gold Lion, Gonna show me where the light is
Take our hands out of control
Take our hands out of control

     F#                    A                      E             A 
Now, tell me what you saw, tell me what you saw, there was a crowd of Sikhs in each

[F#   A     E     A]
In-side, out-side, I must have done a dirt in each
It was the hive I grew, the weight of the shell is crushing you
I've been a round a few, tell them what I saw, I'll them what yer…

[F#   A    E    A]
Oo! Oo!, Oo! Oo!, Oo! Oo! Ah oh!
Oo! Oo!, Oo! Oo!, Oo! Oo! Ah oh!

SOLO:
e|--14----12----------12--------------------------------------------|
B|--------------14----------14----12----------------------12^(1/2)--|
G|--------------------------------------14----11----14--------------|
D|------------------------------------------------------------------|
A|------------------------------------------------------------------|
E|------------------------------------------------------------------|

e|--14----12----------12--------------------------------------------|
B|--------------14----------14----12--------------------------------|
G|--------------------------------------14----11----14----9---/11~--|
D|------------------------------------------------------------------|
A|------------------------------------------------------------------|
E|------------------------------------------------------------------|

[F#   A     E     A]
Gold Lion, Gonna tell me where the light is
Gold Lion, Gonna tell me where the light is
Take our hands out of control
Take our hands out of control (ôôô)

SOLO:
e|------------------------------------------------------------------|
B|------------------------------------------------------------------|
G|------------------------------------------------------------------|
D|------------------------------------------------------------------|
A|-------------------------/4----2--------/7----4-------------------|
E|--2--------4----5--------------------------------------5----4-----|

e|------------------------------------------------------------------|
B|------------------------------------------------------------------|
G|------------------------------------------------------------------|
D|------------------------------------------------------------------|
A|-------------------------/4----2--------/7------------------------|
E|--2--------4----5------------------------------5--------5--4--2---|

[F#   A     E     A]          
Out-side, in-side, this is a moon without a tide
We'll build a fire, in your eyes, we'll build a fire            
when the colours are getting brighter
Cold desire, it's a moon without a tide
tell me what you saw, I'll tell you what I saw

[F#   A    E    A]
Oo! Ooo!, Oo! Ooo!, Oo! Ooo! Ah oh!
Oo! Ooo!, Oo! Ooo!, Oo! Ooo! Ah oh!

SOLO:
e|--14----12----------12--------------------------------------------|
B|--------------14----------14----12----------------------12^(1/2)--|
G|--------------------------------------14----11----14--------------|
D|------------------------------------------------------------------|
A|------------------------------------------------------------------|
E|------------------------------------------------------------------|

e|--14----12----------12--------------------------------------------|
B|--------------14----------14----12--------------------------------|
G|--------------------------------------14----11----14----9---/11~--|
D|------------------------------------------------------------------|
A|------------------------------------------------------------------|
E|------------------------------------------------------------------|

[F#   A    E    A]
Oo! Ooo!, Oo! Ooo!, Oo! Ooo! Ah oh!
Oo! Ooo!, Oo! Ooo!, Oo! Ooo! Ah oh!
Página 1 / 1

Letras y titulo
Acordes y artista

restablecer los ajustes
OK