Ignorin' U

Pitty

Composición de: Pitty
tono: C
Intro: 

   G#          Am          G#
E|-------------------------------------|
B|-------------------------------------|
G|-------4-----------------------4-----|
D|-----3---3---7~7~7~7~7~7~----3---3---|
A|---5-------5-7~7~7~7~7~7~--5-------5-|
E|-4-----------5~5~5~5~5~5~4-----------|

Am       G
 I am ignoring u
F          G
 I will ignore u
Am       G
 I am ignoring u
F          G
 I will ignore u
        Am            G  F             G
'Cause your heart is so full of this shit
    G# G           Am
And I  will ignore u

Am                       G
 Don't bring me your sorrows
F                     E
 Don't bring me your jealousy
Am                       G
 Don't drown me in your mood
F               E
 That kind of thing you do
       Am         G
'Cause I was not born to be
       F     E
The princess up the tower
Am             G
Oh, you can't keep me
 F                  E
Quiet and tied in this bloody cage

Am       G
 I am ignoring u
F          G
 I will ignore u
Am       G
 I am ignoring u
F          G
 I will ignore u
        Am            G  F             G
'Cause your heart is so full of this shit
    G# G           Am
And I  will ignore u  yoou  ah-ah-ah

F                 C
I am not waiting for
    F                              C
A prince on a white horse just to save me
    F             C
I know I have to do by myself
     Am                 G
And this time I will be free

( Am  G  F  E ) 4x

Am       G
 I am ignoring u
F          G
 I will ignore u
Am       G
 I am ignoring u
F          G
 I will ignore u
        Am            G  F             G
'Cause your heart is so full of this shit
    G# G
And I  will ignore u
    G# G
And I  will ignore u
    G# G
And I  will ignore u

Am G
    ignore u
F G
    ignore u
Am    G      F
  a a a... a a a...

   G#               Am
E|---------------------------5/---------|
B|-------------------------5/-----------|
G|---------4-------------5/-------------|
D|-------3---3---------7/---------------|
A|-----5-------5-----7/-----------------|
E|-5~4-------------5/-------------------|
Página 1 / 1

Letras y titulo
Acordes y artista

restablecer los ajustes
OK