Amizade

Quatro Por Um

Composición de: Emerson Pinheiro / Marcus Salles / Valmir Bessa
tono: A
Intro: A  E  D  F#m  E

A           E         D     F#m  E
Que bom te ter aqui comigo
A         E              D  F#m  E
Pra conversar e te conhecer
A         E            D    F#m  E
Entra na roda e vem comigo
A       E             D     F#m  E
Só é feliz quem tem amigos
D9                 A/C#
Aproveitar esse momento lindo
Bm               E
Cantar, sorrir, fazer amigos
D9                      A/C#
Celebrando a Deus que nos uniu
Bm            E
Como foi bom te conhecer

 A          A/C#
 Que bom te conhecer
D           E
Pra mim foi um prazer
A        A/C#                      (2x)
Viver em comunhão
  D    A   Bm    E     A
Amigo mais chegado que irmão.

    Solo: A  C#m  D  F#m A
E|-------------------------------------------
B|---15/17-17~---15-14----14~---15/17-17~----
G|------------14-------16-----------------14-
D|-------------------------------------------
A|-------------------------------------------
E|-------------------------------------------

E|-------------|
B|15-14--------|
G|------16-14~-|
D|-------------|
A|-------------|
E|-------------|
Página 1 / 1

Letras y titulo
Acordes y artista

restablecer los ajustes
OK