Hunting bears

Radiohead

Composición de: Colin Greenwood / Ed O'Brien / Jonny Greenwood / Phil Selway / Thom Yorke
tono: C
A nice instrumental.  Try fiddling with the slides until you get the right
sound. Normal tuning.
--------------------------------|---------------------------------------------
--------------------------------|---------------------------------------------
---0h2----/7--------------------|---0h2----/7-\-5----\-2----------------------
-0-----0------------------------|-0-----0-------------0-----------------------
--------------------------------|---------------------------------------------
--------------------------------|---------------------------------------------

--------------------------------|---------------------------------------------
--------------------------------|---------------------------------------------
---0h2----/7--------------------|---0h2----/7-\-5----\-2----------------------
-0-----0------------------------|-0-----0-------------0-----------------------
--------------------------------|---------------------------------------------
--------------------------------|---------------------------------------------

---------------------|----------------------|---------------------------------
--------10-----------|-------10-------------|----------------10--8------------
-9-10----------------|----9-----------------|-7-7h9h10-10---------------------
---------------------|-12-------------------|---------------------------------
---------------------|----------------------|---------------------------------
---------------------|----------------------|---------------------------------

---------------------|--------------------------------------------------------
-------10------------|-------10-----------------------------------------------
---10----------------|---9----------------------------------------------------
-0-------------------|-0---------------0--------------------------------------
---------------------|--------------------------------------------------------
---------------------|--------------------------------------------------------

Repeat the entire sequence once, then end with this.
--------------------------------|
--------------------------------|
---0h2----/7--------------------|
-0-----0------------------------|
--------------------------------|
--------------------------------|
Página 1 / 1

Letras y titulo
Acordes y artista

restablecer los ajustes
OK