Cifra Club

No Surprises

Radiohead

Cifrado: Acustica (guitarra y guitarra eléctrica)
tono: F (con acordes en la forma de D) Capotraste en 3ª casa
Intro:

E|2--------2------|2--------------0|
B|----3--------3--|----3--------3--|
G|--2---2----2---2|--2---2--0-3----|  (2x)
D|----------------|----------------|
A|----------------|----------------|
E|----------------|----------------|

Verso:

     D                          Bm
A heart thats full up like a landfill,
                  Em
A job that slowly kills you,
  A         Asus4   D
Bruises that wont heal.
 D
You look so tired, unhappy,
 Bm
Bring down the Government,
 Em          A       Asus4     D
They dont, they dont speak for us.
  D
Ill take a quiet life,
   Bm
A handshake of carbon monoxide,

Refrão:

      Em            A   Asus4
With no alarms and no surprises
 Em           A    Asus4
No alarms and no surprises
 Em           A    Asus4
No alarms and no surprises
  D   (intro)
Silence...... Silence

Ponte:

  D
This is my final fit
    Bm
My final bellyache

Refrão:

     Em            A   Asus4
With no alarms and no surprises
 Em           A    Asus4
No alarms and no surprises
 Em           A    Asus4
No alarms and no surprises
  D (intro)
Please

Parte instrumental: A  D4/G  A  D4/G  Em  D4/G

Ponte:

  D
Such a pretty house,
     Bm
And such a pretty garden

Refrão:

     Em            A   Asus4
With no alarms and no surprises
 Em           A    Asus4
No alarms and no surprises
 Em           A    Asus4
No alarms and no surprises

Please

Outro:

E|2--------2------|2--------------0|
B|----3--------3--|----3--------3--|
G|--2---2----2---2|--2---2--0-3----|  2x
D|----------------|----------------|
A|----------------|----------------|
E|----------------|----------------|

    D
E|-2--------------|
B|-3--------------|
G|-2--------------|
D|-0--------------|
A|----------------|
E|----------------|
Composición de Colin Greenwood / Ed O'Brien / Jonny Greenwood / Phil Selway / Thom Yorke
Colaboración y revisión:
  • Felippe Silva
1.887 vistas
    • ½ Tono
    • A
    • Bb
    • B
    • C
    • Db
    • D
    • Eb
    • E
    • F
    • F#
    • G
    • Ab
  • Agregar a la lista

    0 comentarios

    Ver todos los comentarios

    ¿Lograste tocar?

    7 Tocaron 0 Aún no

    ¡Graba un video tocando No Surprises y envíanoslo!

    00:00 / 00:00
    Otros videos de esta canción
    Repetir Calidad Automático
    Otros videos de esta canción
    00:00 / 00:00
    Automático
    OK