Mein Herz Brennt

Rammstein

Composición de: Rammstein
tono: F
Note: The tuning for this song is dropped D, down a whole step Low to high:  CGCFAD

Intro/Chorus      
                                                       
D||------------------------------|---------------------------|
A||------------------------------|---------------------------|
F||------------------------------|---------------------------|
C||--0-0-0---0-0-0---0-0-0-0-0-0-|--0---0-0-0---0-0-0--0--2--|
G||--0-0-0---0-0-0---0-0-0-0-0-0-|--0---0-0-0---0-0-0--0--2--|
C||--0-0-0---0-0-0---0-0-0-0-0-0-|--0---0-0-0---0-0-0--0--2--|


 Pre-Chorus                                                                               
-------------------|-------------------|-------------------|-------------------|
-------------------|-------------------|-------------------|-------------------|
--7----------------|-------------------|--3----------------|--5----------------|
--7----------------|--5----------------|--3----------------|--5----------------|
--5----------------|--5----------------|--1----------------|--3----------------|
-------------------|--5----------------|-------------------|-------------------|


                                                                                
-------------------|-------------------|-------------------|-------------------|
-------------------|-------------------|-------------------|-------------------|
--7----------------|-------------------|-------------------|-------------------|
--7----------------|--5----------------|--3----------------|--2----------------|
--5----------------|--5----------------|--3----------------|--2----------------|
-------------------|--5----------------|--3----------------|--2----------------|

Chord before solo     Solo                                  3x                  
-------------------|------------------------------------------|
-------------------|--7-7-7-7-8-8-8-8-10-10-10-10-12-12-12-12-|
-------------------|*----------------------------------------*|
--2----------------|------------------------------------------|
--2----------------|*----------------------------------------*|
--2----------------|------------------------------------------|

                                     Rhythm behind the solo                              
---------------------------|------------------------------|
---15-15-15-15-17-17-17-17-|------------------------------|
---------------------------|------------------------------|
------------------------- -|--2-2-2---2-2-2---2-2-2-2-2-2-|
---------------------------|--2-2-2---2-2-2---2-2-2-2-2-2-|
---------------------------|--2-2-2---2-2-2---2-2-2-2-2-2-|


                             
---------------------------||
---------------------------||
---------------------------||
--2---2-2-2---2-2-2--2--4--||
--2---2-2-2---2-2-2--2--4--||
--2---2-2-2---2-2-2--2--4--||
Página 1 / 1

Letras y titulo
Acordes y artista

restablecer los ajustes
OK