Cifra Club

Crise Geral

Ratos de Porão

Tab de bajo: Principal
Intro
G|---------------|
D|---------------|
A|-33333333---55-|
E|----------3----|

Verso 1 ( Falam de anarquia, de lutar pra viver...)
G|---------------|
D|---------------|
A|-33333333---55-|
E|----------3----|

Ponte
G|---------------|
D|---------------|          (2x)
A|-33333333---55-|
E|----------3----|        

Verso 2 ( Olhe pra sua vida, tá dificil pra danar...)
G|---------------|
D|---------------|
A|-33333333---55-|
E|----------3----|

Solo 
G|---------------|
D|---------------|           (2x)
A|-3-5-7---------|          
E|--3-5-7--------|

G|---------------|
D|---------------|           (2x)
A|-22222222-55---|
E|---------3-----|

Refrão
G|---------------|
D|---------------|           (4x)
A|-22222222-55---|
E|---------3-----|

G|---------------|
D|---------------|           (2x)
A|-33333333-55---|          
E|---------3-----|

Solo
G|---------------|
D|---------------|           (2x)
A|-3-5-7---------|          
E|--3-5-7--------|

Recomendo escutar a música pra fazer o solo pra saber o ritmo... 
Compositor não encontrado.
Colaboración y revisión:
  • João Pessoa
47 vistas

0 comentarios

Ver todos los comentarios

¿Lograste tocar?

1 Tocaron 0 Aún no

¡Graba un video tocando Crise Geral y envíanoslo!

00:00 / 00:00
Outros vídeos desta música
Repetir Calidad Automático
Outros vídeos desta música
00:00 / 00:00
Automático
OK