Lompartyman

Redcore

Tabbed by/date: Vick garbugli 00/06/24
Tuning/others: standard


verse/chorus(slapped)

G:----------------------------------------
D:----------------------------------------
A:-----------------------------------55---
E:----88--11--44--22--3h5-0--3h5-0--------


bridge
G:----------------------------
D:----------------------------
A:--------------------5h7-----
E:----000022223333-5h7--------

outro
G:----------------------------
D:----------------------------
A:----------12-*9*----h10-----
E:----9-13--------------------



Page 1 / 1

Lyrics and title
Chords and artist

reset settings
OK