Bad Guy

Reel Big Fish

Composición de: Reel Big Fish

Intro:

G|----------------------------------------------|
D|-------5h7p5---5----5/7---22-0----0-----------|       X 2
A|----5--------7-----------------33-------------|
E|-33-------------------------------------------|


Verse: Same as intro X 4


Pre-Chorus:

G|-----------------------------------------------|
D|-----------------------------------------------|
A|--0*-------------------------------------------|
E|------1*--3*-----------------------------------|


Chorus: "It's mean, but I'm not sorry I let you down"

G|-----------------------------------------------|
D|-----------------------------------------------|      X 3
A|--3333-----------------------------------------|
E|-------0000-1111-3333--------------------------|


"Bet you wish I'd never came around, don't you?"

G|-----------------------------------------------|
D|-----------------------------------------------|
A|--11111111-------------------------------------|
E|--------------11111111---33--------------------|


verse riff X 4

Pre Chorus X 1

Chorus X 3


Bridge:

G|-----------------------------------------------|
D|-----------------------------------------------|
A|--------------------3-2-0----------------------|  X 8
E|--3-3--01--3---0-11----------------------------|

"It's not funny. It's not funny at all, no no. Etc etc"

G|------------------------------------------------|
D|---------------------------------------------0--|
A|------------------3333-------------------023----|
E|--3-3--01--3-0-11-------3-3--01--3--0--3------3-|

G|---------------------------------------------------|
D|---------------------------------------------------|
A|------------------3333----------------------33-2-0-|
E|--3-3-01--3--0-11-------3-3--01--3--0-1-1-0--------|


"'Cause I'm the bad guy. Etc"

G|------------------------------------------------|
D|------------------------------------------------|  X 3
A|-0000-------------------------------------------|
E|-------1111-------------------------------------|

"'Cause I'm the bad guy."

G|------------------------------------------------|
D|------------------------------------------------|
A|-00000000---------------------------------------|
E|-----------1111--3333---------------------------|


Ska breakdown of chorus. You can improvise in C if you like.


Chorus X 4


End: Basically main riff of bridge with different ending.

G|-----------------------------------------------|
D|-----------------------------------------------|
A|------------------------33---------------------|
E|--33-0--1--3--0--1-1-1-----3-------------------|
Página 1 / 1

Letras y titulo
Acordes y artista

restablecer los ajustes
OK