Say Goodbye Intro

Reel Big Fish

tono: D
Album- We're not happy 'till you'r not happy.

This is just the intro, but im working on the whole song, out soon!
-Libelul

E|-----9-9-10-------------------------------9------9--9--------------|
A|--10---------12--10----10--------10--------12-10-------------------|
D|9--------------------11--11--9--11--11--9----9---------------------|
G|-------------------------------------------------------------------|
B|-------------------------------------------------------------------|
E|-------------------------------------------------------------------|

E|10-12-10-9------------------------14--12---------------------------|
A|--------------12-10-------------10---------------------------------|
D|---------------------11---9--11------------------------------------|
G|-------------------------------------------------------------------|
B|-------------------------------------------------------------------|
E|-------------------------------------------------------------------|
Página 1 / 1

Letras y titulo
Acordes y artista

restablecer los ajustes
OK